  0
SECTION
  2
HEADER
  9
$ACADVER
  1
AC1014
  9
$ACADMAINTVER
 70
     0
  9
$DWGCODEPAGE
  3
ANSI_1252
  9
$INSBASE
 10
0.0
 20
0.0
 30
0.0
  9
$EXTMIN
 10
0.0
 20
0.0
 30
0.0
  9
$EXTMAX
 10
220.193954
 20
176.0
 30
2.0
  9
$LIMMIN
 10
0.0
 20
0.0
  9
$LIMMAX
 10
420.0
 20
297.0
  9
$ORTHOMODE
 70
     0
  9
$REGENMODE
 70
     1
  9
$FILLMODE
 70
     1
  9
$QTEXTMODE
 70
     0
  9
$MIRRTEXT
 70
     1
  9
$DRAGMODE
 70
     2
  9
$LTSCALE
 40
1.0
  9
$OSMODE
 70
     0
  9
$ATTMODE
 70
     1
  9
$TEXTSIZE
 40
2.5
  9
$TRACEWID
 40
1.0
  9
$TEXTSTYLE
  7
STANDARD
  9
$CLAYER
  8
0
  9
$CELTYPE
  6
BYLAYER
  9
$CECOLOR
 62
   256
  9
$CELTSCALE
 40
1.0
  9
$DELOBJ
 70
     1
  9
$DISPSILH
 70
     0
  9
$DIMSCALE
 40
1.0
  9
$DIMASZ
 40
2.5
  9
$DIMEXO
 40
0.625
  9
$DIMDLI
 40
3.75
  9
$DIMRND
 40
0.0
  9
$DIMDLE
 40
0.0
  9
$DIMEXE
 40
1.25
  9
$DIMTP
 40
0.0
  9
$DIMTM
 40
0.0
  9
$DIMTXT
 40
2.5
  9
$DIMCEN
 40
2.5
  9
$DIMTSZ
 40
0.0
  9
$DIMTOL
 70
     0
  9
$DIMLIM
 70
     0
  9
$DIMTIH
 70
     0
  9
$DIMTOH
 70
     0
  9
$DIMSE1
 70
     0
  9
$DIMSE2
 70
     0
  9
$DIMTAD
 70
     1
  9
$DIMZIN
 70
     8
  9
$DIMBLK
  1

  9
$DIMASO
 70
     1
  9
$DIMSHO
 70
     1
  9
$DIMPOST
  1

  9
$DIMAPOST
  1

  9
$DIMALT
 70
     0
  9
$DIMALTD
 70
     3
  9
$DIMALTF
 40
0.03937
  9
$DIMLFAC
 40
1.0
  9
$DIMTOFL
 70
     1
  9
$DIMTVP
 40
0.0
  9
$DIMTIX
 70
     0
  9
$DIMSOXD
 70
     0
  9
$DIMSAH
 70
     0
  9
$DIMBLK1
  1

  9
$DIMBLK2
  1

  9
$DIMSTYLE
  2

  9
$DIMCLRD
 70
     0
  9
$DIMCLRE
 70
     0
  9
$DIMCLRT
 70
     0
  9
$DIMTFAC
 40
1.0
  9
$DIMGAP
 40
0.625
  9
$DIMJUST
 70
     0
  9
$DIMSD1
 70
     0
  9
$DIMSD2
 70
     0
  9
$DIMTOLJ
 70
     0
  9
$DIMTZIN
 70
     8
  9
$DIMALTZ
 70
     0
  9
$DIMALTTZ
 70
     0
  9
$DIMFIT
 70
     0
  9
$DIMUPT
 70
     0
  9
$DIMUNIT
 70
     2
  9
$DIMDEC
 70
     2
  9
$DIMTDEC
 70
     2
  9
$DIMALTU
 70
     2
  9
$DIMALTTD
 70
     3
  9
$DIMTXSTY
  7
STANDARD
  9
$DIMAUNIT
 70
     0
  9
$LUNITS
 70
     2
  9
$LUPREC
 70
     4
  9
$SKETCHINC
 40
1.0
  9
$FILLETRAD
 40
2.5
  9
$AUNITS
 70
     0
  9
$AUPREC
 70
     0
  9
$MENU
  1
.
  9
$ELEVATION
 40
0.0
  9
$PELEVATION
 40
0.0
  9
$THICKNESS
 40
0.0
  9
$LIMCHECK
 70
     0
  9
$BLIPMODE
 70
     1
  9
$CHAMFERA
 40
2.5
  9
$CHAMFERB
 40
2.5
  9
$CHAMFERC
 40
0.0
  9
$CHAMFERD
 40
0.0
  9
$SKPOLY
 70
     0
  9
$TDCREATE
 40
0.000000000
  9
$TDUPDATE
 40
0.000000000
  9
$TDINDWG
 40
0.0000000000
  9
$TDUSRTIMER
 40
0.0000000000
  9
$USRTIMER
 70
     1
  9
$ANGBASE
 50
0.0
  9
$ANGDIR
 70
     0
  9
$PDMODE
 70
     0
  9
$PDSIZE
 40
0.0
  9
$PLINEWID
 40
0.0
  9
$COORDS
 70
     0
  9
$SPLFRAME
 70
     0
  9
$SPLINETYPE
 70
     6
  9
$SPLINESEGS
 70
     8
  9
$ATTDIA
 70
     0
  9
$ATTREQ
 70
     1
  9
$HANDLING
 70
     1
  9
$HANDSEED
  5
162
  9
$SURFTAB1
 70
     6
  9
$SURFTAB2
 70
     6
  9
$SURFTYPE
 70
     6
  9
$SURFU
 70
     6
  9
$SURFV
 70
     6
  9
$UCSNAME
  2

  9
$UCSORG
 10
0.0
 20
0.0
 30
0.0
  9
$UCSXDIR
 10
1.0
 20
0.0
 30
0.0
  9
$UCSYDIR
 10
0.0
 20
1.0
 30
0.0
  9
$PUCSNAME
  2

  9
$PUCSORG
 10
0.0
 20
0.0
 30
0.0
  9
$PUCSXDIR
 10
1.0
 20
0.0
 30
0.0
  9
$PUCSYDIR
 10
0.0
 20
1.0
 30
0.0
  9
$USERI1
 70
     0
  9
$USERI2
 70
     0
  9
$USERI3
 70
     0
  9
$USERI4
 70
     0
  9
$USERI5
 70
     0
  9
$USERR1
 40
0.0
  9
$USERR2
 40
0.0
  9
$USERR3
 40
0.0
  9
$USERR4
 40
0.0
  9
$USERR5
 40
0.0
  9
$WORLDVIEW
 70
     1
  9
$SHADEDGE
 70
     3
  9
$SHADEDIF
 70
    70
  9
$TILEMODE
 70
     1
  9
$MAXACTVP
 70
    48
  9
$PINSBASE
 10
0.0
 20
0.0
 30
0.0
  9
$PLIMCHECK
 70
     0
  9
$PEXTMIN
 10
0.0
 20
0.0
 30
0.0
  9
$PEXTMAX
 10
220.193954
 20
176.0
 30
2.0
  9
$PLIMMIN
 10
0.0
 20
0.0
  9
$PLIMMAX
 10
420.0
 20
297.0
  9
$UNITMODE
 70
     0
  9
$VISRETAIN
 70
     0
  9
$PLINEGEN
 70
     0
  9
$PSLTSCALE
 70
     1
  9
$TREEDEPTH
 70
  3020
  9
$PICKSTYLE
 70
     1
  9
$CMLSTYLE
  2
STANDARD
  9
$CMLJUST
 70
     0
  9
$CMLSCALE
 40
20.0
  9
$PROXYGRAPHICS
 70
     1
  9
$MEASUREMENT
 70
     1
  0
ENDSEC
  0
SECTION
  2
CLASSES
  0
CLASS
  1
LWPOLYLINE
  2
AcDbPolyline
  3
"AutoCAD"
 90
        0
280
     0
281
     1
  0
CLASS
  1
IMAGE
  2
AcDbRasterImage
  3
ISM
 90
      127
280
     0
281
     1
  0
CLASS
  1
OLE2FRAME
  2
AcDbOle2Frame
  3
""
 90
        0
280
     0
281
     1
  0
CLASS
  1
HATCH
  2
AcDbHatch
  3
"ACAD_SEDONA"
 90
        0
280
     0
281
     1
  0
CLASS
  1
DICTIONARYVAR
  2
AcDbDictionaryVar
  3
"AutoCAD"
 90
        0
280
     0
281
     0
  0
CLASS
  1
RASTERVARIABLES
  2
AcDbRasterVariables
  3
ISM
 90
        0
280
     0
281
     0
  0
CLASS
  1
IMAGEDEF
  2
AcDbRasterImageDef
  3
ISM
 90
        0
280
     0
281
     0
  0
CLASS
  1
IMAGEDEF_REACTOR
  2
AcDbRasterImageDefReactor
  3
ISM
 90
        1
280
     0
281
     0
  0
CLASS
  1
IDBUFFER
  2
AcDbIdBuffer
  3
"Acad"
 90
        0
280
     0
281
     0
  0
CLASS
  1
SPATIAL_FILTER
  2
AcDbSpatialFilter
  3
"Acad"
 90
        0
280
     0
281
     0
  0
CLASS
  1
XRECORD
  2
AcDbXrecord
  3
"<Built In>"
 90
        0
280
     0
281
     0
  0
CLASS
  1
SORTENTSTABLE
  2
AcDbSortentsTable
  3
"AutoCAD"
 90
        0
280
     0
281
     0
  0
CLASS
  1
LAYER_INDEX
  2
AcDbLayerIndex
  3
"Acad"
 90
        0
280
     0
281
     0
  0
CLASS
  1
SPATIAL_INDEX
  2
AcDbSpatialIndex
  3
"Acad"
 90
        0
280
     0
281
     0
  0
CLASS
  1
OBJECT_PTR
  2
CAseDLPNTableRecord
  3
"ASE-LPNTableRecord"
 90
        1
280
     0
281
     0
  0
CLASS
  1
LAYOUT
  2
AcDbLayout
  3
"AutoCAD 2000"
 90
        1
280
     0
281
     0
  0
CLASS
  1
PLOTSETTINGS
  2
AcDbPlotSettings
  3
"AutoCAD 2000"
 90
        1
280
     0
281
     0
  0
CLASS
  1
ACDBDICTIONARYWDFLT
  2
AcDbDictionaryWithDefault
  3
"AutoCAD 2000"
 90
        1
280
     0
281
     0
  0
CLASS
  1
ACDBPLACEHOLDER
  2
AcDbPlaceHolder
  3
"AutoCAD 2000"
 90
        1
280
     0
281
     0
  0
CLASS
  1
VBA_PROJECT
  2
AcDbVbaProject
  3
"acadvba"
 90
        1
280
     0
281
     0
  0
CLASS
  1
WIPEOUT
  2
AcDbWipeout
  3
WipeOut|AutoCAD Express Tool|expresstools@autodesk.com
 90
      127
280
     0
281
     1
  0
CLASS
  1
WIPEOUTVARIABLES
  2
AcDbWipeoutVariables
  3
WipeOut|AutoCAD Express Tool|expresstools@autodesk.com
 90
        0
280
     0
281
     0
  0
CLASS
  1
RTEXT
  2
RText
  3
RText|AutoCAD Express Tool|expresstools@autodesk.com
 90
        0
280
     0
281
     1
  0
CLASS
  1
ARCALIGNEDTEXT
  2
AcDbArcAlignedText
  3
ATEXT|AutoCAD Express Tool|expresstools@autodesk.com
 90
        0
280
     0
281
     1
  0
ENDSEC
  0
SECTION
  2
TABLES
  0
TABLE
  2
VPORT
  5
7
100
AcDbSymbolTable
 70
     1
  0
VPORT
  5
15
100
AcDbSymbolTableRecord
100
AcDbViewportTableRecord
  2
*ACTIVE
 70
     0
 10
0.0
 20
0.0
 11
1.0
 21
1.0
 12
6.591288
 22
4.579184
 13
0.0
 23
0.0
 14
1.0
 24
1.0
 15
0.0
 25
0.0
 16
0.0
 26
0.0
 36
1.0
 17
0.0
 27
0.0
 37
0.0
 40
9.158369
 41
0.688564
 42
50.0
 43
0.0
 44
0.0
 50
0.0
 51
0.0
 71
     0
 72
   100
 73
     1
 74
     1
 75
     0
 76
     0
 77
     0
 78
     0
  0
ENDTAB
  0
TABLE
  2
LTYPE
  5
4
100
AcDbSymbolTable
 70
    10
  0
LTYPE
  5
11
100
AcDbSymbolTableRecord
100
AcDbLinetypeTableRecord
  2
BYBLOCK
 70
    64
  3

 72
    65
 73
     0
 40
0.0
  0
LTYPE
  5
12
100
AcDbSymbolTableRecord
100
AcDbLinetypeTableRecord
  2
BYLAYER
 70
    64
  3

 72
    65
 73
     0
 40
0.0
  0
LTYPE
  5
13
100
AcDbSymbolTableRecord
100
AcDbLinetypeTableRecord
  2
CONTINUOUS
 70
    64
  3
Solid line
 72
    65
 73
     0
 40
0.0
  0
LTYPE
  5
1D
100
AcDbSymbolTableRecord
100
AcDbLinetypeTableRecord
  2
DASHED
 70
     0
  3
__ __ __ __ __ __ __ __ __ __ __ __ __ __ __ __
 72
    65
 73
     2
 40
15.0
 49
12.0
 74
     0
 49
-3.0
 74
     0
  0
LTYPE
  5
1E
100
AcDbSymbolTableRecord
100
AcDbLinetypeTableRecord
  2
DASHDOT
 70
     0
  3
 __ . __ . __ . __ . __ . __ . __ . 
 72
    65
 73
     4
 40
18.5
 49
12.0
 74
     0
 49
-3.0
 74
     0
 49
0.5
 74
     0
 49
-3.0
 74
     0
  0
LTYPE
  5
1F
100
AcDbSymbolTableRecord
100
AcDbLinetypeTableRecord
  2
DOT
 70
     0
  3
 . . . . . . . . . . . . . . . .
 72
    65
 73
     2
 40
3.5
 49
0.5
 74
     0
 49
-3.0
 74
     0
  0
LTYPE
  5
20
100
AcDbSymbolTableRecord
100
AcDbLinetypeTableRecord
  2
DASHSPACE
 70
     0
  3
__    __    __    __    __   
 72
    65
 73
     2
 40
30.0
 49
12.0
 74
     0
 49
-18.0
 74
     0
  0
LTYPE
  5
21
100
AcDbSymbolTableRecord
100
AcDbLinetypeTableRecord
  2
DASHDOT2
 70
     0
  3
__ . . __ . . __ . . __ 
 72
    65
 73
     6
 40
22.0
 49
12.0
 74
     0
 49
-3.0
 74
     0
 49
0.5
 74
     0
 49
-3.0
 74
     0
 49
0.5
 74
     0
 49
-3.0
 74
     0
  0
LTYPE
  5
22
100
AcDbSymbolTableRecord
100
AcDbLinetypeTableRecord
  2
PHANTOM
 70
     0
  3
____________    ____    ____   _
 72
    65
 73
     6
 40
20.0
 49
10.0
 74
     0
 49
-2.0
 74
     0
 49
2.0
 74
     0
 49
-2.0
 74
     0
 49
2.0
 74
     0
 49
-2.0
 74
     0
  0
LTYPE
  5
23
100
AcDbSymbolTableRecord
100
AcDbLinetypeTableRecord
  2
AXES
 70
     0
  3
________  __  ________  __  _____
 72
    65
 73
     4
 40
24.0
 49
15.0
 74
     0
 49
-3.0
 74
     0
 49
3.0
 74
     0
 49
-3.0
 74
     0
  0
ENDTAB
  0
TABLE
  2
LAYER
  5
2
100
AcDbSymbolTable
 70
     1
  0
LAYER
  5
14
100
AcDbSymbolTableRecord
100
AcDbLayerTableRecord
  2
0
 70
     0
 62
     7
  6
CONTINUOUS
  0
ENDTAB
  0
TABLE
  2
STYLE
  5
3
100
AcDbSymbolTable
 70
     1
  0
STYLE
  5
17
100
AcDbSymbolTableRecord
100
AcDbTextStyleTableRecord
  2
STANDARD
 70
     0
 40
0.0
 41
1.0
 50
0.0
 71
     0
 42
0.0
  3
txt
  4

  0
ENDTAB
  0
TABLE
  2
VIEW
  5
5
100
AcDbSymbolTable
 70
     0
  0
ENDTAB
  0
TABLE
  2
UCS
  5
6
100
AcDbSymbolTable
 70
     0
  0
ENDTAB
  0
TABLE
  2
APPID
  5
8
100
AcDbSymbolTable
 70
     1
  0
APPID
  5
16
100
AcDbSymbolTableRecord
100
AcDbRegAppTableRecord
  2
ACAD
 70
     0
  0
ENDTAB
  0
TABLE
  2
DIMSTYLE
  5
9
100
AcDbSymbolTable
 70
     1
  0
DIMSTYLE
105
18
100
AcDbSymbolTableRecord
100
AcDbDimStyleTableRecord
  2
STANDARD
 70
     0
  3

  4

  5

  6

  7

 40
1.0
 41
0.18
 42
0.0625
 43
0.38
 44
0.18
 45
0.0
 46
0.0
 47
0.0
 48
0.0
 71
     0
 72
     0
 73
     1
 74
     1
 75
     0
 76
     0
 77
     0
 78
     0
140
0.18
141
0.09
142
0.0
143
25.4
144
1.0
145
0.0
146
1.0
147
0.09
170
     0
171
     2
172
     0
173
     0
174
     0
175
     0
176
     0
177
     0
178
     0
270
     2
271
     4
272
     4
273
     2
274
     2
275
     0
280
     0
281
     0
282
     0
283
     1
284
     0
285
     0
286
     0
287
     0
288
     0
340
17
  0
ENDTAB
  0
TABLE
  2
BLOCK_RECORD
  5
1
100
AcDbSymbolTable
 70
     0
  0
BLOCK_RECORD
  5
A
100
AcDbSymbolTableRecord
100
AcDbBlockTableRecord
  2
*MODEL_SPACE
  0
BLOCK_RECORD
  5
B
100
AcDbSymbolTableRecord
100
AcDbBlockTableRecord
  2
*PAPER_SPACE
  0
ENDTAB
  0
ENDSEC
  0
SECTION
  2
BLOCKS
  0
BLOCK
  5
D
100
AcDbEntity
  8
0
100
AcDbBlockBegin
  2
*MODEL_SPACE
 70
     0
 10
0.0
 20
0.0
 30
0.0
  3
*MODEL_SPACE
  1

  0
ENDBLK
  5
E
100
AcDbEntity
  8
0
100
AcDbBlockEnd
  0
BLOCK
  5
F
100
AcDbEntity
 67
     1
  8
0
100
AcDbBlockBegin
  2
*PAPER_SPACE
 70
     0
 10
0.0
 20
0.0
 30
0.0
  3
*PAPER_SPACE
  1

  0
ENDBLK
  5
10
100
AcDbEntity
 67
     1
  8
0
100
AcDbBlockEnd
  0
ENDSEC
  0
SECTION
  2
ENTITIES
  0
VIEWPORT
  5
161
100
AcDbEntity
 67
     1
  8
0
 62
     0
 48
0.0
100
AcDbViewport
 10
0.0
 20
0.0
 30
0.0
 40
1000.0
 41
1000.0
 68
     1
 69
     1
1001
ACAD
1000
MVIEW
1002
{
1070
    16
1010
0.0
1020
0.0
1030
0.0
1010
0.0
1020
0.0
1030
1.0
1040
0.0
1040
1000.0
1040
0.0
1040
0.0
1040
50.0
1040
0.0
1040
0.0
1070
     0
1070
   100
1070
     1
1070
     1
1070
     0
1070
     0
1070
     0
1070
     0
1040
0.0
1040
0.0
1040
0.0
1040
1.0
1040
1.0
1040
1.0
1040
1.0
1070
     0
1002
{
1002
}
1002
}
  0
POLYLINE
  5
24
100
AcDbEntity
  8
0
 62
     7
100
AcDb2dPolyline
 66
     1
 10
0.0
 20
0.0
 30
0.0
 71
     2
  0
VERTEX
  5
25
100
AcDbEntity
  8
0
100
AcDbVertex
100
AcDb2dVertex
 10
148.5
 20
23.5
 30
0.0
  0
VERTEX
  5
26
100
AcDbEntity
  8
0
100
AcDbVertex
100
AcDb2dVertex
 10
152.0
 20
23.5
 30
0.0
  0
SEQEND
  5
27
100
AcDbEntity
  8
0
  0
POLYLINE
  5
28
100
AcDbEntity
  8
0
 62
     7
100
AcDb2dPolyline
 66
     1
 10
0.0
 20
0.0
 30
0.0
 71
     2
  0
VERTEX
  5
29
100
AcDbEntity
  8
0
100
AcDbVertex
100
AcDb2dVertex
 10
150.366669
 20
23.5
 30
0.0
  0
VERTEX
  5
2A
100
AcDbEntity
  8
0
100
AcDbVertex
100
AcDb2dVertex
 10
150.366669
 20
26.766666
 30
0.0
  0
SEQEND
  5
2B
100
AcDbEntity
  8
0
  0
POLYLINE
  5
2C
100
AcDbEntity
  8
0
 62
     7
100
AcDb2dPolyline
 66
     1
 10
0.0
 20
0.0
 30
0.0
 71
     2
  0
VERTEX
  5
2D
100
AcDbEntity
  8
0
100
AcDbVertex
100
AcDb2dVertex
 10
151.766663
 20
26.766666
 30
0.0
  0
VERTEX
  5
2E
100
AcDbEntity
  8
0
100
AcDbVertex
100
AcDb2dVertex
 10
148.733337
 20
26.766666
 30
0.0
  0
SEQEND
  5
2F
100
AcDbEntity
  8
0
  0
POLYLINE
  5
30
100
AcDbEntity
  8
0
 62
     7
100
AcDb2dPolyline
 66
     1
 10
0.0
 20
0.0
 30
0.0
 71
     2
  0
VERTEX
  5
31
100
AcDbEntity
  8
0
100
AcDbVertex
100
AcDb2dVertex
 10
149.199997
 20
25.6
 30
0.0
  0
VERTEX
  5
32
100
AcDbEntity
  8
0
100
AcDbVertex
100
AcDb2dVertex
 10
149.199997
 20
23.5
 30
0.0
  0
SEQEND
  5
33
100
AcDbEntity
  8
0
  0
POLYLINE
  5
34
100
AcDbEntity
  8
0
 62
     7
100
AcDb2dPolyline
 66
     1
 10
0.0
 20
0.0
 30
0.0
 71
     2
  0
VERTEX
  5
35
100
AcDbEntity
  8
0
100
AcDbVertex
100
AcDb2dVertex
 10
150.366669
 20
25.133333
 30
0.0
  0
VERTEX
  5
36
100
AcDbEntity
  8
0
100
AcDbVertex
100
AcDb2dVertex
 10
151.53334
 20
25.133333
 30
0.0
  0
SEQEND
  5
37
100
AcDbEntity
  8
0
  0
POLYLINE
  5
38
100
AcDbEntity
  8
0
 62
     7
100
AcDb2dPolyline
 66
     1
 10
0.0
 20
0.0
 30
0.0
 71
     2
  0
VERTEX
  5
39
100
AcDbEntity
  8
0
100
AcDbVertex
100
AcDb2dVertex
 10
153.166672
 20
23.5
 30
0.0
  0
VERTEX
  5
3A
100
AcDbEntity
  8
0
100
AcDbVertex
100
AcDb2dVertex
 10
153.166672
 20
25.833334
 30
0.0
  0
SEQEND
  5
3B
100
AcDbEntity
  8
0
  0
POLYLINE
  5
3C
100
AcDbEntity
  8
0
 62
     7
100
AcDb2dPolyline
 66
     1
 10
0.0
 20
0.0
 30
0.0
 71
     2
  0
VERTEX
  5
3D
100
AcDbEntity
  8
0
100
AcDbVertex
100
AcDb2dVertex
 10
152.933334
 20
25.833334
 30
0.0
  0
VERTEX
  5
3E
100
AcDbEntity
  8
0
100
AcDbVertex
100
AcDb2dVertex
 10
153.866669
 20
26.766666
 30
0.0
  0
SEQEND
  5
3F
100
AcDbEntity
  8
0
  0
POLYLINE
  5
40
100
AcDbEntity
  8
0
 62
     7
100
AcDb2dPolyline
 66
     1
 10
0.0
 20
0.0
 30
0.0
 71
     2
  0
VERTEX
  5
41
100
AcDbEntity
  8
0
100
AcDbVertex
100
AcDb2dVertex
 10
154.333328
 20
25.833334
 30
0.0
  0
VERTEX
  5
42
100
AcDbEntity
  8
0
100
AcDbVertex
100
AcDb2dVertex
 10
154.333328
 20
23.5
 30
0.0
  0
SEQEND
  5
43
100
AcDbEntity
  8
0
  0
POLYLINE
  5
44
100
AcDbEntity
  8
0
 62
     7
100
AcDb2dPolyline
 66
     1
 10
0.0
 20
0.0
 30
0.0
 71
     2
  0
VERTEX
  5
45
100
AcDbEntity
  8
0
100
AcDbVertex
100
AcDb2dVertex
 10
154.333328
 20
24.433332
 30
0.0
  0
VERTEX
  5
46
100
AcDbEntity
  8
0
100
AcDbVertex
100
AcDb2dVertex
 10
153.166672
 20
24.433332
 30
0.0
  0
SEQEND
  5
47
100
AcDbEntity
  8
0
  0
POLYLINE
  5
48
100
AcDbEntity
  8
0
 62
     7
100
AcDb2dPolyline
 66
     1
 10
0.0
 20
0.0
 30
0.0
 71
     2
  0
VERTEX
  5
49
100
AcDbEntity
  8
0
100
AcDbVertex
100
AcDb2dVertex
 10
153.166672
 20
25.133333
 30
0.0
  0
VERTEX
  5
4A
100
AcDbEntity
  8
0
100
AcDbVertex
100
AcDb2dVertex
 10
154.333328
 20
25.133333
 30
0.0
  0
SEQEND
  5
4B
100
AcDbEntity
  8
0
  0
POLYLINE
  5
4C
100
AcDbEntity
  8
0
 62
     7
100
AcDb2dPolyline
 66
     1
 10
0.0
 20
0.0
 30
0.0
 71
     2
  0
VERTEX
  5
4D
100
AcDbEntity
  8
0
100
AcDbVertex
100
AcDb2dVertex
 10
155.5
 20
26.766666
 30
0.0
  0
VERTEX
  5
4E
100
AcDbEntity
  8
0
100
AcDbVertex
100
AcDb2dVertex
 10
152.0
 20
26.766666
 30
0.0
  0
SEQEND
  5
4F
100
AcDbEntity
  8
0
  0
POLYLINE
  5
50
100
AcDbEntity
  8
0
 62
     7
100
AcDb2dPolyline
 66
     1
 10
0.0
 20
0.0
 30
0.0
 70
     1
 71
     4
  0
VERTEX
  5
51
100
AcDbEntity
  8
0
100
AcDbVertex
100
AcDb2dVertex
 10
152.233337
 20
25.833334
 30
0.0
  0
VERTEX
  5
52
100
AcDbEntity
  8
0
100
AcDbVertex
100
AcDb2dVertex
 10
152.233337
 20
23.5
 30
0.0
  0
VERTEX
  5
53
100
AcDbEntity
  8
0
100
AcDbVertex
100
AcDb2dVertex
 10
155.266663
 20
23.5
 30
0.0
  0
VERTEX
  5
54
100
AcDbEntity
  8
0
100
AcDbVertex
100
AcDb2dVertex
 10
155.266663
 20
25.833334
 30
0.0
  0
SEQEND
  5
55
100
AcDbEntity
  8
0
  0
POLYLINE
  5
56
100
AcDbEntity
  8
0
 62
     7
100
AcDb2dPolyline
 66
     1
 10
0.0
 20
0.0
 30
0.0
 71
     2
  0
VERTEX
  5
57
100
AcDbEntity
  8
0
100
AcDbVertex
100
AcDb2dVertex
 10
156.199997
 20
23.966667
 30
0.0
  0
VERTEX
  5
58
100
AcDbEntity
  8
0
100
AcDbVertex
100
AcDb2dVertex
 10
158.300003
 20
26.066666
 30
0.0
  0
SEQEND
  5
59
100
AcDbEntity
  8
0
  0
POLYLINE
  5
5A
100
AcDbEntity
  8
0
 62
     7
100
AcDb2dPolyline
 66
     1
 10
0.0
 20
0.0
 30
0.0
 71
     2
  0
VERTEX
  5
5B
100
AcDbEntity
  8
0
100
AcDbVertex
100
AcDb2dVertex
 10
157.366669
 20
25.833334
 30
0.0
  0
VERTEX
  5
5C
100
AcDbEntity
  8
0
100
AcDbVertex
100
AcDb2dVertex
 10
156.899994
 20
26.299999
 30
0.0
  0
SEQEND
  5
5D
100
AcDbEntity
  8
0
  0
POLYLINE
  5
5E
100
AcDbEntity
  8
0
 62
     7
100
AcDb2dPolyline
 66
     1
 10
0.0
 20
0.0
 30
0.0
 71
     2
  0
VERTEX
  5
5F
100
AcDbEntity
  8
0
100
AcDbVertex
100
AcDb2dVertex
 10
156.666672
 20
25.833334
 30
0.0
  0
VERTEX
  5
60
100
AcDbEntity
  8
0
100
AcDbVertex
100
AcDb2dVertex
 10
156.199997
 20
26.299999
 30
0.0
  0
SEQEND
  5
61
100
AcDbEntity
  8
0
  0
POLYLINE
  5
62
100
AcDbEntity
  8
0
 62
     7
100
AcDb2dPolyline
 66
     1
 10
0.0
 20
0.0
 30
0.0
 71
     2
  0
VERTEX
  5
63
100
AcDbEntity
  8
0
100
AcDbVertex
100
AcDb2dVertex
 10
156.199997
 20
25.366667
 30
0.0
  0
VERTEX
  5
64
100
AcDbEntity
  8
0
100
AcDbVertex
100
AcDb2dVertex
 10
158.066666
 20
24.433332
 30
0.0
  0
SEQEND
  5
65
100
AcDbEntity
  8
0
  0
POLYLINE
  5
66
100
AcDbEntity
  8
0
 62
     7
100
AcDb2dPolyline
 66
     1
 10
0.0
 20
0.0
 30
0.0
 70
     1
 71
     4
  0
VERTEX
  5
67
100
AcDbEntity
  8
0
100
AcDbVertex
100
AcDb2dVertex
 10
158.766663
 20
23.5
 30
0.0
  0
VERTEX
  5
68
100
AcDbEntity
  8
0
100
AcDbVertex
100
AcDb2dVertex
 10
155.5
 20
23.5
 30
0.0
  0
VERTEX
  5
69
100
AcDbEntity
  8
0
100
AcDbVertex
100
AcDb2dVertex
 10
155.5
 20
26.766666
 30
0.0
  0
VERTEX
  5
6A
100
AcDbEntity
  8
0
100
AcDbVertex
100
AcDb2dVertex
 10
158.766663
 20
26.766666
 30
0.0
  0
SEQEND
  5
6B
100
AcDbEntity
  8
0
  0
POLYLINE
  5
6C
100
AcDbEntity
  8
0
 62
     7
100
AcDb2dPolyline
 66
     1
 10
0.0
 20
0.0
 30
0.0
 71
     6
  0
VERTEX
  5
6D
100
AcDbEntity
  8
0
100
AcDbVertex
100
AcDb2dVertex
 10
164.366669
 20
23.5
 30
0.0
  0
VERTEX
  5
6E
100
AcDbEntity
  8
0
100
AcDbVertex
100
AcDb2dVertex
 10
163.899994
 20
23.966667
 30
0.0
  0
VERTEX
  5
6F
100
AcDbEntity
  8
0
100
AcDbVertex
100
AcDb2dVertex
 10
163.433334
 20
24.9
 30
0.0
  0
VERTEX
  5
70
100
AcDbEntity
  8
0
100
AcDbVertex
100
AcDb2dVertex
 10
163.433334
 20
25.6
 30
0.0
  0
VERTEX
  5
71
100
AcDbEntity
  8
0
100
AcDbVertex
100
AcDb2dVertex
 10
163.899994
 20
26.533333
 30
0.0
  0
VERTEX
  5
72
100
AcDbEntity
  8
0
100
AcDbVertex
100
AcDb2dVertex
 10
164.366669
 20
27.0
 30
0.0
  0
SEQEND
  5
73
100
AcDbEntity
  8
0
  0
POLYLINE
  5
74
100
AcDbEntity
  8
0
 62
     7
100
AcDb2dPolyline
 66
     1
 10
0.0
 20
0.0
 30
0.0
 71
     2
  0
VERTEX
  5
75
100
AcDbEntity
  8
0
100
AcDbVertex
100
AcDb2dVertex
 10
164.600006
 20
23.733334
 30
0.0
  0
VERTEX
  5
76
100
AcDbEntity
  8
0
100
AcDbVertex
100
AcDb2dVertex
 10
166.46666
 20
23.733334
 30
0.0
  0
SEQEND
  5
77
100
AcDbEntity
  8
0
  0
POLYLINE
  5
78
100
AcDbEntity
  8
0
 62
     7
100
AcDb2dPolyline
 66
     1
 10
0.0
 20
0.0
 30
0.0
 71
     3
  0
VERTEX
  5
79
100
AcDbEntity
  8
0
100
AcDbVertex
100
AcDb2dVertex
 10
165.533325
 20
23.733334
 30
0.0
  0
VERTEX
  5
7A
100
AcDbEntity
  8
0
100
AcDbVertex
100
AcDb2dVertex
 10
165.533325
 20
26.766666
 30
0.0
  0
VERTEX
  5
7B
100
AcDbEntity
  8
0
100
AcDbVertex
100
AcDb2dVertex
 10
164.366669
 20
25.833334
 30
0.0
  0
SEQEND
  5
7C
100
AcDbEntity
  8
0
  0
POLYLINE
  5
7D
100
AcDbEntity
  8
0
 62
     7
100
AcDb2dPolyline
 66
     1
 10
0.0
 20
0.0
 30
0.0
 70
     1
 71
     4
  0
VERTEX
  5
7E
100
AcDbEntity
  8
0
100
AcDbVertex
100
AcDb2dVertex
 10
166.46666
 20
24.200001
 30
0.0
  0
VERTEX
  5
7F
100
AcDbEntity
  8
0
100
AcDbVertex
100
AcDb2dVertex
 10
166.699997
 20
24.200001
 30
0.0
  0
VERTEX
  5
80
100
AcDbEntity
  8
0
100
AcDbVertex
100
AcDb2dVertex
 10
166.699997
 20
24.433332
 30
0.0
  0
VERTEX
  5
81
100
AcDbEntity
  8
0
100
AcDbVertex
100
AcDb2dVertex
 10
166.46666
 20
24.433332
 30
0.0
  0
SEQEND
  5
82
100
AcDbEntity
  8
0
  0
POLYLINE
  5
83
100
AcDbEntity
  8
0
 62
     7
100
AcDb2dPolyline
 66
     1
 10
0.0
 20
0.0
 30
0.0
 70
     1
 71
     4
  0
VERTEX
  5
84
100
AcDbEntity
  8
0
100
AcDbVertex
100
AcDb2dVertex
 10
166.46666
 20
26.066666
 30
0.0
  0
VERTEX
  5
85
100
AcDbEntity
  8
0
100
AcDbVertex
100
AcDb2dVertex
 10
166.699997
 20
26.066666
 30
0.0
  0
VERTEX
  5
86
100
AcDbEntity
  8
0
100
AcDbVertex
100
AcDb2dVertex
 10
166.699997
 20
26.299999
 30
0.0
  0
VERTEX
  5
87
100
AcDbEntity
  8
0
100
AcDbVertex
100
AcDb2dVertex
 10
166.46666
 20
26.299999
 30
0.0
  0
SEQEND
  5
88
100
AcDbEntity
  8
0
  0
POLYLINE
  5
89
100
AcDbEntity
  8
0
 62
     7
100
AcDb2dPolyline
 66
     1
 10
0.0
 20
0.0
 30
0.0
 71
     2
  0
VERTEX
  5
8A
100
AcDbEntity
  8
0
100
AcDbVertex
100
AcDb2dVertex
 10
166.933334
 20
23.733334
 30
0.0
  0
VERTEX
  5
8B
100
AcDbEntity
  8
0
100
AcDbVertex
100
AcDb2dVertex
 10
168.800003
 20
23.733334
 30
0.0
  0
SEQEND
  5
8C
100
AcDbEntity
  8
0
  0
POLYLINE
  5
8D
100
AcDbEntity
  8
0
 62
     7
100
AcDb2dPolyline
 66
     1
 10
0.0
 20
0.0
 30
0.0
 71
     3
  0
VERTEX
  5
8E
100
AcDbEntity
  8
0
100
AcDbVertex
100
AcDb2dVertex
 10
167.866669
 20
23.733334
 30
0.0
  0
VERTEX
  5
8F
100
AcDbEntity
  8
0
100
AcDbVertex
100
AcDb2dVertex
 10
167.866669
 20
26.766666
 30
0.0
  0
VERTEX
  5
90
100
AcDbEntity
  8
0
100
AcDbVertex
100
AcDb2dVertex
 10
166.699997
 20
25.833334
 30
0.0
  0
SEQEND
  5
91
100
AcDbEntity
  8
0
  0
POLYLINE
  5
92
100
AcDbEntity
  8
0
 62
     7
100
AcDb2dPolyline
 66
     1
 10
0.0
 20
0.0
 30
0.0
 71
     6
  0
VERTEX
  5
93
100
AcDbEntity
  8
0
100
AcDbVertex
100
AcDb2dVertex
 10
168.800003
 20
23.5
 30
0.0
  0
VERTEX
  5
94
100
AcDbEntity
  8
0
100
AcDbVertex
100
AcDb2dVertex
 10
169.266663
 20
23.966667
 30
0.0
  0
VERTEX
  5
95
100
AcDbEntity
  8
0
100
AcDbVertex
100
AcDb2dVertex
 10
169.733337
 20
24.9
 30
0.0
  0
VERTEX
  5
96
100
AcDbEntity
  8
0
100
AcDbVertex
100
AcDb2dVertex
 10
169.733337
 20
25.6
 30
0.0
  0
VERTEX
  5
97
100
AcDbEntity
  8
0
100
AcDbVertex
100
AcDb2dVertex
 10
169.266663
 20
26.533333
 30
0.0
  0
VERTEX
  5
98
100
AcDbEntity
  8
0
100
AcDbVertex
100
AcDb2dVertex
 10
168.800003
 20
27.0
 30
0.0
  0
SEQEND
  5
99
100
AcDbEntity
  8
0
  0
ELLIPSE
  5
9A
100
AcDbEntity
  8
0
 62
     7
100
AcDbEllipse
 10
176.809372
 20
149.768036
 30
0.0
 11
0.0
 21
-1.25
 31
0.0
210
0.0
220
0.0
230
1.0
 40
0.98821
 41
3.1416189670562744
 42
4.1189770698547363
  0
ELLIPSE
  5
9B
100
AcDbEntity
  8
0
 62
     7
100
AcDbEllipse
 10
176.809372
 20
149.768036
 30
0.0
 11
0.0
 21
-1.25
 31
0.0
210
0.0
220
0.0
230
1.0
 40
0.98821
 41
4.1189770698547363
 42
5.9193367958068848
  0
ELLIPSE
  5
9C
100
AcDbEntity
  8
0
 62
     7
100
AcDbEllipse
 10
179.871445
 20
149.768036
 30
0.0
 11
0.0
 21
-1.25
 31
0.0
210
0.0
220
0.0
230
1.0
 40
0.98821
 41
0.0000263046713371
 42
3.1416189670562744
  0
ELLIPSE
  5
9D
100
AcDbEntity
  8
0
 62
     7
100
AcDbEllipse
 10
179.871445
 20
149.768036
 30
0.0
 11
0.0
 21
-1.25
 31
0.0
210
0.0
220
0.0
230
1.0
 40
0.98821
 41
3.1416189670562744
 42
4.1189770698547363
  0
ELLIPSE
  5
9E
100
AcDbEntity
  8
0
 62
     7
100
AcDbEllipse
 10
178.493515
 20
149.768036
 30
0.0
 11
0.0
 21
-1.25
 31
0.0
210
0.0
220
0.0
230
1.0
 40
0.98821
 41
3.1415314674377441
 42
3.4754760265350342
  0
LINE
  5
9F
100
AcDbEntity
  8
0
 62
     7
 48
0.003828
100
AcDbLine
 10
177.935593
 20
150.949005
 30
0.0
 11
178.088699
 21
150.949005
 31
0.0
210
0.0
220
0.0
230
1.0
  0
ELLIPSE
  5
A0
100
AcDbEntity
  8
0
 62
     7
100
AcDbEllipse
 10
179.871445
 20
149.768036
 30
0.0
 11
0.0
 21
-1.25
 31
0.0
210
0.0
220
0.0
230
1.0
 40
0.98821
 41
4.1189770698547363
 42
6.2832117080688477
  0
LINE
  5
A1
100
AcDbEntity
  8
0
 62
     7
 48
0.003828
100
AcDbLine
 10
177.106689
 20
149.705444
 30
0.0
 11
177.259796
 21
149.705444
 31
0.0
210
0.0
220
0.0
230
1.0
  0
ELLIPSE
  5
A2
100
AcDbEntity
  8
0
 62
     7
100
AcDbEllipse
 10
178.493515
 20
149.768036
 30
0.0
 11
0.0
 21
-1.25
 31
0.0
210
0.0
220
0.0
230
1.0
 40
0.98821
 41
4.7624783515930176
 42
6.2831239700317383
  0
LINE
  5
A3
100
AcDbEntity
  8
0
 62
     7
 48
0.003828
100
AcDbLine
 10
107.893524
 20
45.868488
 30
0.0
 11
108.046631
 21
45.868488
 31
0.0
210
0.0
220
0.0
230
1.0
  0
LINE
  5
A4
100
AcDbEntity
  8
0
 62
     7
 48
0.049596
100
AcDbLine
 10
109.532051
 20
44.750103
 30
0.0
 11
107.893524
 21
45.868488
 31
0.0
210
0.0
220
0.0
230
1.0
  0
LINE
  5
A5
100
AcDbEntity
  8
0
 62
     7
 48
0.003827
100
AcDbLine
 10
109.532051
 20
44.750103
 30
0.0
 11
109.68515
 21
44.750103
 31
0.0
210
0.0
220
0.0
230
1.0
  0
LINE
  5
A6
100
AcDbEntity
  8
0
 62
     7
 48
0.049595
100
AcDbLine
 10
109.68515
 20
44.750103
 30
0.0
 11
108.046631
 21
45.868488
 31
0.0
210
0.0
220
0.0
230
1.0
  0
LINE
  5
A7
100
AcDbEntity
  8
0
 62
     7
 48
0.025084
100
AcDbLine
 10
108.046631
 20
45.868488
 30
0.0
 11
108.603119
 21
46.703365
 31
0.0
210
0.0
220
0.0
230
1.0
  0
LINE
  5
A8
100
AcDbEntity
  8
0
 62
     7
 48
0.025084
100
AcDbLine
 10
110.241646
 20
45.584976
 30
0.0
 11
109.68515
 21
44.750103
 31
0.0
210
0.0
220
0.0
230
1.0
  0
ELLIPSE
  5
A9
100
AcDbEntity
  8
0
 62
     7
100
AcDbEllipse
 10
148.653107
 20
105.0
 30
0.0
 11
0.0
 21
-71.0
 31
0.0
210
0.0
220
0.0
230
1.0
 40
0.98821
 41
5.6756882667541504
 42
5.7038583755493164
  0
LINE
  5
AA
100
AcDbEntity
  8
0
 62
     7
 48
0.025084
100
AcDbLine
 10
107.893524
 20
45.868488
 30
0.0
 11
108.450012
 21
46.703365
 31
0.0
210
0.0
220
0.0
230
1.0
  0
LINE
  5
AB
100
AcDbEntity
  8
0
 62
     7
 48
0.003828
100
AcDbLine
 10
108.450012
 20
46.703365
 30
0.0
 11
108.603119
 21
46.703365
 31
0.0
210
0.0
220
0.0
230
1.0
  0
LINE
  5
AC
100
AcDbEntity
  8
0
 62
     7
 48
0.003827
100
AcDbLine
 10
187.467957
 20
165.249893
 30
0.0
 11
187.621048
 21
165.249893
 31
0.0
210
0.0
220
0.0
230
1.0
  0
LINE
  5
AD
100
AcDbEntity
  8
0
 62
     7
 48
0.049596
100
AcDbLine
 10
187.621048
 20
165.249893
 30
0.0
 11
189.259583
 21
164.131516
 31
0.0
210
0.0
220
0.0
230
1.0
  0
LINE
  5
AE
100
AcDbEntity
  8
0
 62
     7
 48
0.005491
100
AcDbLine
 10
189.259583
 20
164.131516
 30
0.0
 11
189.137756
 21
163.948761
 31
0.0
210
0.0
220
0.0
230
1.0
  0
LINE
  5
AF
100
AcDbEntity
  8
0
 62
     7
 48
0.006302
100
AcDbLine
 10
187.481247
 20
165.040146
 30
0.0
 11
187.621048
 21
165.249893
 31
0.0
210
0.0
220
0.0
230
1.0
  0
LINE
  5
B0
100
AcDbEntity
  8
0
 62
     7
 48
0.004244
100
AcDbLine
 10
187.373795
 20
165.108643
 30
0.0
 11
187.467957
 21
165.249893
 31
0.0
210
0.0
220
0.0
230
1.0
  0
ELLIPSE
  5
B1
100
AcDbEntity
  8
0
 62
     7
100
AcDbEllipse
 10
146.968964
 20
105.0
 30
0.0
 11
0.0
 21
-71.0
 31
0.0
210
0.0
220
0.0
230
1.0
 40
0.98821
 41
3.1415987014770508
 42
5.6937813758850098
  0
ELLIPSE
  5
B2
100
AcDbEntity
  8
0
 62
     7
100
AcDbEllipse
 10
146.968964
 20
105.0
 30
0.0
 11
0.0
 21
-71.0
 31
0.0
210
0.0
220
0.0
230
1.0
 40
0.98821
 41
5.7237753868103027
 42
6.2831912040710449
  0
ELLIPSE
  5
B3
100
AcDbEntity
  8
0
 62
     7
100
AcDbEllipse
 10
146.968964
 20
105.0
 30
0.0
 11
0.0
 21
-70.0
 31
0.0
210
0.0
220
0.0
230
1.0
 40
0.98821
 41
2.5441198348999023
 42
3.1194641590118408
  0
ELLIPSE
  5
B4
100
AcDbEntity
  8
0
 62
     7
100
AcDbEllipse
 10
146.968964
 20
105.0
 30
0.0
 11
0.0
 21
-70.0
 31
0.0
210
0.0
220
0.0
230
1.0
 40
0.98821
 41
0.0221397876739502
 42
2.5137169361114502
  0
ELLIPSE
  5
B5
100
AcDbEntity
  8
0
 62
     7
100
AcDbEllipse
 10
150.031036
 20
105.0
 30
0.0
 11
0.0
 21
-71.0
 31
0.0
210
0.0
220
0.0
230
1.0
 40
0.98821
 41
3.1415987014770508
 42
6.2831912040710449
  0
ELLIPSE
  5
B6
100
AcDbEntity
  8
0
 62
     7
100
AcDbEllipse
 10
150.031036
 20
105.0
 30
0.0
 11
0.0
 21
-71.0
 31
0.0
210
0.0
220
0.0
230
1.0
 40
0.98821
 41
0.0000061081627791
 42
2.5481808185577393
  0
ELLIPSE
  5
B7
100
AcDbEntity
  8
0
 62
     7
100
AcDbEllipse
 10
150.031036
 20
105.0
 30
0.0
 11
0.0
 21
-71.0
 31
0.0
210
0.0
220
0.0
230
1.0
 40
0.98821
 41
2.5481808185577393
 42
3.1415987014770508
  0
ELLIPSE
  5
B8
100
AcDbEntity
  8
0
 62
     7
100
AcDbEllipse
 10
150.031036
 20
105.0
 30
0.0
 11
0.0
 21
-70.0
 31
0.0
210
0.0
220
0.0
230
1.0
 40
0.98821
 41
0.0000061081627791
 42
3.1415987014770508
  0
ELLIPSE
  5
B9
100
AcDbEntity
  8
0
 62
     7
100
AcDbEllipse
 10
150.031036
 20
105.0
 30
0.0
 11
0.0
 21
-70.0
 31
0.0
210
0.0
220
0.0
230
1.0
 40
0.98821
 41
3.1415987014770508
 42
5.6897735595703125
  0
ELLIPSE
  5
BA
100
AcDbEntity
  8
0
 62
     7
100
AcDbEllipse
 10
148.653107
 20
105.0
 30
0.0
 11
0.0
 21
-70.0
 31
0.0
210
0.0
220
0.0
230
1.0
 40
0.98821
 41
2.5338945388793945
 42
2.5624668598175049
  0
LINE
  5
BB
100
AcDbEntity
  8
0
 62
     7
 48
0.003828
100
AcDbLine
 10
186.358795
 20
163.585907
 30
0.0
 11
186.511902
 21
163.585907
 31
0.0
210
0.0
220
0.0
230
1.0
  0
ELLIPSE
  5
BC
100
AcDbEntity
  8
0
 62
     7
100
AcDbEllipse
 10
150.031036
 20
105.0
 30
0.0
 11
0.0
 21
-70.0
 31
0.0
210
0.0
220
0.0
230
1.0
 40
0.98821
 41
5.6897735595703125
 42
6.2831912040710449
  0
ELLIPSE
  5
BD
100
AcDbEntity
  8
0
 62
     7
100
AcDbEllipse
 10
118.812698
 20
60.231972
 30
0.0
 11
0.0
 21
-1.25
 31
0.0
210
0.0
220
0.0
230
1.0
 40
0.98821
 41
4.7624783515930176
 42
6.2831239700317383
  0
LINE
  5
BE
100
AcDbEntity
  8
0
 62
     7
 48
0.359601
100
AcDbLine
 10
109.601067
 20
48.200531
 30
0.0
 11
117.578979
 21
60.169384
 31
0.0
210
0.0
220
0.0
230
1.0
  0
LINE
  5
BF
100
AcDbEntity
  8
0
 62
     7
 48
0.35835
100
AcDbLine
 10
119.171494
 20
58.981972
 30
0.0
 11
111.221329
 21
47.054749
 31
0.0
210
0.0
220
0.0
230
1.0
  0
LINE
  5
C0
100
AcDbEntity
  8
0
 62
     7
 48
0.357342
100
AcDbLine
 10
109.498093
 20
48.275734
 30
0.0
 11
117.42588
 21
60.169384
 31
0.0
210
0.0
220
0.0
230
1.0
  0
LINE
  5
C1
100
AcDbEntity
  8
0
 62
     7
 48
0.003827
100
AcDbLine
 10
117.42588
 20
60.169384
 30
0.0
 11
117.578979
 21
60.169384
 31
0.0
210
0.0
220
0.0
230
1.0
  0
ELLIPSE
  5
C2
100
AcDbEntity
  8
0
 62
     7
100
AcDbEllipse
 10
117.128563
 20
60.231972
 30
0.0
 11
0.0
 21
-1.25
 31
0.0
210
0.0
220
0.0
230
1.0
 40
0.98821
 41
3.1416189670562744
 42
5.9193367958068848
  0
ELLIPSE
  5
C3
100
AcDbEntity
  8
0
 62
     7
100
AcDbEllipse
 10
120.19062
 20
60.231972
 30
0.0
 11
0.0
 21
-1.25
 31
0.0
210
0.0
220
0.0
230
1.0
 40
0.98821
 41
3.1416189670562744
 42
6.2832117080688477
  0
ELLIPSE
  5
C4
100
AcDbEntity
  8
0
 62
     7
100
AcDbEllipse
 10
120.19062
 20
60.231972
 30
0.0
 11
0.0
 21
-1.25
 31
0.0
210
0.0
220
0.0
230
1.0
 40
0.98821
 41
0.0000263046713371
 42
0.9773843884468079
  0
ELLIPSE
  5
C5
100
AcDbEntity
  8
0
 62
     7
100
AcDbEllipse
 10
120.19062
 20
60.231972
 30
0.0
 11
0.0
 21
-1.25
 31
0.0
210
0.0
220
0.0
230
1.0
 40
0.98821
 41
0.9773843884468079
 42
3.1416189670562744
  0
ELLIPSE
  5
C6
100
AcDbEntity
  8
0
 62
     7
100
AcDbEllipse
 10
118.812698
 20
60.231972
 30
0.0
 11
0.0
 21
-1.25
 31
0.0
210
0.0
220
0.0
230
1.0
 40
0.98821
 41
3.1415314674377441
 42
3.4754760265350342
  0
LINE
  5
C7
100
AcDbEntity
  8
0
 62
     7
 48
0.003828
100
AcDbLine
 10
118.254776
 20
61.412941
 30
0.0
 11
118.407883
 21
61.412941
 31
0.0
210
0.0
220
0.0
230
1.0
  0
LINE
  5
C8
100
AcDbEntity
  8
0
 62
     7
 48
0.405095
100
AcDbLine
 10
118.407883
 20
61.412941
 30
0.0
 11
127.395103
 21
74.896011
 31
0.0
210
0.0
220
0.0
230
1.0
  0
LINE
  5
C9
100
AcDbEntity
  8
0
 62
     7
 48
0.373463
100
AcDbLine
 10
129.03363
 20
73.777618
 30
0.0
 11
120.748184
 21
61.347397
 31
0.0
210
0.0
220
0.0
230
1.0
  0
ELLIPSE
  5
CA
100
AcDbEntity
  8
0
 62
     7
100
AcDbEllipse
 10
148.653107
 20
105.0
 30
0.0
 11
0.0
 21
-37.0
 31
0.0
210
0.0
220
0.0
230
1.0
 40
0.98821
 41
5.662743091583252
 42
5.7168035507202148
  0
LINE
  5
CB
100
AcDbEntity
  8
0
 62
     7
 48
0.003827
100
AcDbLine
 10
127.242004
 20
74.896011
 30
0.0
 11
127.395103
 21
74.896011
 31
0.0
210
0.0
220
0.0
230
1.0
  0
LINE
  5
CC
100
AcDbEntity
  8
0
 62
     7
 48
0.405095
100
AcDbLine
 10
118.254776
 20
61.412941
 30
0.0
 11
127.242004
 21
74.896011
 31
0.0
210
0.0
220
0.0
230
1.0
  0
ELLIPSE
  5
CD
100
AcDbEntity
  8
0
 62
     7
100
AcDbEllipse
 10
147.734482
 20
105.0
 30
0.0
 11
0.0
 21
-37.0
 31
0.0
210
0.0
220
0.0
230
1.0
 40
0.98821
 41
5.7376599311828613
 42
6.2831912040710449
  0
ELLIPSE
  5
CE
100
AcDbEntity
  8
0
 62
     7
100
AcDbEllipse
 10
147.734482
 20
105.0
 30
0.0
 11
0.0
 21
-37.0
 31
0.0
210
0.0
220
0.0
230
1.0
 40
0.98821
 41
3.1415987014770508
 42
5.6801080703735352
  0
ELLIPSE
  5
CF
100
AcDbEntity
  8
0
 62
     7
100
AcDbEllipse
 10
147.734482
 20
105.0
 30
0.0
 11
0.0
 21
-36.0
 31
0.0
210
0.0
220
0.0
230
1.0
 40
0.98821
 41
2.558124303817749
 42
3.1200792789459229
  0
ELLIPSE
  5
D0
100
AcDbEntity
  8
0
 62
     7
100
AcDbEllipse
 10
147.734482
 20
105.0
 30
0.0
 11
0.0
 21
-36.0
 31
0.0
210
0.0
220
0.0
230
1.0
 40
0.98821
 41
0.0215248502790928
 42
2.4989898204803467
  0
ELLIPSE
  5
D1
100
AcDbEntity
  8
0
 62
     7
100
AcDbEllipse
 10
149.265518
 20
105.0
 30
0.0
 11
0.0
 21
-37.0
 31
0.0
210
0.0
220
0.0
230
1.0
 40
0.98821
 41
3.1415987014770508
 42
6.2831912040710449
  0
ELLIPSE
  5
D2
100
AcDbEntity
  8
0
 62
     7
100
AcDbEllipse
 10
149.265518
 20
105.0
 30
0.0
 11
0.0
 21
-37.0
 31
0.0
210
0.0
220
0.0
230
1.0
 40
0.98821
 41
0.0000061081627791
 42
2.5481808185577393
  0
ELLIPSE
  5
D3
100
AcDbEntity
  8
0
 62
     7
100
AcDbEllipse
 10
149.265518
 20
105.0
 30
0.0
 11
0.0
 21
-37.0
 31
0.0
210
0.0
220
0.0
230
1.0
 40
0.98821
 41
2.5481808185577393
 42
3.1415987014770508
  0
ELLIPSE
  5
D4
100
AcDbEntity
  8
0
 62
     7
100
AcDbEllipse
 10
149.265518
 20
105.0
 30
0.0
 11
0.0
 21
-36.0
 31
0.0
210
0.0
220
0.0
230
1.0
 40
0.98821
 41
0.0000061081627791
 42
3.1415987014770508
  0
ELLIPSE
  5
D5
100
AcDbEntity
  8
0
 62
     7
100
AcDbEllipse
 10
149.265518
 20
105.0
 30
0.0
 11
0.0
 21
-36.0
 31
0.0
210
0.0
220
0.0
230
1.0
 40
0.98821
 41
3.1415987014770508
 42
5.6897735595703125
  0
ELLIPSE
  5
D6
100
AcDbEntity
  8
0
 62
     7
100
AcDbEllipse
 10
148.653107
 20
105.0
 30
0.0
 11
0.0
 21
-36.0
 31
0.0
210
0.0
220
0.0
230
1.0
 40
0.98821
 41
2.5203993320465088
 42
2.5759620666503906
  0
LINE
  5
D7
100
AcDbEntity
  8
0
 62
     7
 48
0.003828
100
AcDbLine
 10
167.566666
 20
135.393036
 30
0.0
 11
167.719772
 21
135.393036
 31
0.0
210
0.0
220
0.0
230
1.0
  0
ELLIPSE
  5
D8
100
AcDbEntity
  8
0
 62
     7
100
AcDbEllipse
 10
149.265518
 20
105.0
 30
0.0
 11
0.0
 21
-36.0
 31
0.0
210
0.0
220
0.0
230
1.0
 40
0.98821
 41
5.6897735595703125
 42
6.2831912040710449
  0
LINE
  5
D9
100
AcDbEntity
  8
0
 62
     7
100
AcDbLine
 10
169.358292
 20
134.274643
 30
0.0
 11
129.772064
 21
74.885468
 31
0.0
210
0.0
220
0.0
230
1.0
  0
LINE
  5
DA
100
AcDbEntity
  8
0
 62
     7
100
AcDbLine
 10
128.149338
 20
76.027542
 30
0.0
 11
167.719772
 21
135.393036
 31
0.0
210
0.0
220
0.0
230
1.0
  0
LINE
  5
DB
100
AcDbEntity
  8
0
 62
     7
100
AcDbLine
 10
128.047211
 20
76.104034
 30
0.0
 11
167.566666
 21
135.393036
 31
0.0
210
0.0
220
0.0
230
1.0
  0
LINE
  5
DC
100
AcDbEntity
  8
0
 62
     7
 48
0.396898
100
AcDbLine
 10
168.454437
 20
136.495209
 30
0.0
 11
177.259796
 21
149.705444
 31
0.0
210
0.0
220
0.0
230
1.0
  0
LINE
  5
DD
100
AcDbEntity
  8
0
 62
     7
 48
0.394132
100
AcDbLine
 10
178.85231
 20
148.518036
 30
0.0
 11
170.108307
 21
135.399841
 31
0.0
210
0.0
220
0.0
230
1.0
  0
LINE
  5
DE
100
AcDbEntity
  8
0
 62
     7
 48
0.394877
100
AcDbLine
 10
168.346176
 20
136.562485
 30
0.0
 11
177.106689
 21
149.705444
 31
0.0
210
0.0
220
0.0
230
1.0
  0
LINE
  5
DF
100
AcDbEntity
  8
0
 62
     7
 48
0.379672
100
AcDbLine
 10
178.088699
 20
150.949005
 30
0.0
 11
186.511902
 21
163.585907
 31
0.0
210
0.0
220
0.0
230
1.0
  0
LINE
  5
E0
100
AcDbEntity
  8
0
 62
     7
 48
0.34804
100
AcDbLine
 10
188.150421
 20
162.467514
 30
0.0
 11
180.429001
 21
150.883453
 31
0.0
210
0.0
220
0.0
230
1.0
  0
LINE
  5
E1
100
AcDbEntity
  8
0
 62
     7
 48
0.379672
100
AcDbLine
 10
177.935593
 20
150.949005
 30
0.0
 11
186.358795
 21
163.585907
 31
0.0
210
0.0
220
0.0
230
1.0
  0
ELLIPSE
  5
E2
100
AcDbEntity
  8
0
 62
     7
100
AcDbEllipse
 10
102.728745
 20
135.196411
 30
0.0
 11
0.0
 21
-1.25
 31
0.0
210
0.0
220
0.0
230
1.0
 40
0.98821
 41
3.1416189670562744
 42
5.6897735595703125
  0
ELLIPSE
  5
E3
100
AcDbEntity
  8
0
 62
     7
100
AcDbEllipse
 10
105.790802
 20
135.196411
 30
0.0
 11
0.0
 21
-1.25
 31
0.0
210
0.0
220
0.0
230
1.0
 40
0.98821
 41
0.0000263046713371
 42
3.1416189670562744
  0
ELLIPSE
  5
E4
100
AcDbEntity
  8
0
 62
     7
100
AcDbEllipse
 10
105.790802
 20
135.196411
 30
0.0
 11
0.0
 21
-1.25
 31
0.0
210
0.0
220
0.0
230
1.0
 40
0.98821
 41
3.1416189670562744
 42
5.6897735595703125
  0
ELLIPSE
  5
E5
100
AcDbEntity
  8
0
 62
     7
100
AcDbEllipse
 10
102.728745
 20
135.196411
 30
0.0
 11
0.0
 21
-1.25
 31
0.0
210
0.0
220
0.0
230
1.0
 40
0.98821
 41
5.6897735595703125
 42
6.2832117080688477
  0
ELLIPSE
  5
E6
100
AcDbEntity
  8
0
 62
     7
100
AcDbEllipse
 10
105.790802
 20
135.196411
 30
0.0
 11
0.0
 21
-1.25
 31
0.0
210
0.0
220
0.0
230
1.0
 40
0.98821
 41
5.6897735595703125
 42
6.2832117080688477
  0
ELLIPSE
  5
E7
100
AcDbEntity
  8
0
 62
     7
100
AcDbEllipse
 10
95.672821
 20
119.884415
 30
0.0
 11
0.0
 21
-1.25
 31
0.0
210
0.0
220
0.0
230
1.0
 40
0.98821
 41
3.1416406631469727
 42
6.0039324760437012
  0
ELLIPSE
  5
E8
100
AcDbEntity
  8
0
 62
     7
100
AcDbEllipse
 10
98.734879
 20
119.884415
 30
0.0
 11
0.0
 21
-1.25
 31
0.0
210
0.0
220
0.0
230
1.0
 40
0.98821
 41
0.0000479121445096
 42
3.1416406631469727
  0
ELLIPSE
  5
E9
100
AcDbEntity
  8
0
 62
     7
100
AcDbEllipse
 10
98.734879
 20
119.884415
 30
0.0
 11
0.0
 21
-1.25
 31
0.0
210
0.0
220
0.0
230
1.0
 40
0.98821
 41
3.1416406631469727
 42
6.0039324760437012
  0
ELLIPSE
  5
EA
100
AcDbEntity
  8
0
 62
     7
100
AcDbEllipse
 10
95.672821
 20
119.884415
 30
0.0
 11
0.0
 21
-1.25
 31
0.0
210
0.0
220
0.0
230
1.0
 40
0.98821
 41
6.0039324760437012
 42
6.2832331657409668
  0
ELLIPSE
  5
EB
100
AcDbEntity
  8
0
 62
     7
100
AcDbEllipse
 10
98.734879
 20
119.884415
 30
0.0
 11
0.0
 21
-1.25
 31
0.0
210
0.0
220
0.0
230
1.0
 40
0.98821
 41
6.0039324760437012
 42
6.2832331657409668
  0
ELLIPSE
  5
EC
100
AcDbEntity
  8
0
 62
     7
100
AcDbEllipse
 10
93.638123
 20
103.115425
 30
0.0
 11
0.0
 21
-1.25
 31
0.0
210
0.0
220
0.0
230
1.0
 40
0.98821
 41
3.1414735317230225
 42
6.2830662727355957
  0
ELLIPSE
  5
ED
100
AcDbEntity
  8
0
 62
     7
100
AcDbEllipse
 10
96.70018
 20
103.115425
 30
0.0
 11
0.0
 21
-1.25
 31
0.0
210
0.0
220
0.0
230
1.0
 40
0.98821
 41
3.1414735317230225
 42
6.2830662727355957
  0
ELLIPSE
  5
EE
100
AcDbEntity
  8
0
 62
     7
100
AcDbEllipse
 10
96.70018
 20
103.115425
 30
0.0
 11
0.0
 21
-1.25
 31
0.0
210
0.0
220
0.0
230
1.0
 40
0.98821
 41
6.2830662727355957
 42
6.318091869354248
  0
ELLIPSE
  5
EF
100
AcDbEntity
  8
0
 62
     7
100
AcDbEllipse
 10
96.70018
 20
103.115425
 30
0.0
 11
0.0
 21
-1.25
 31
0.0
210
0.0
220
0.0
230
1.0
 40
0.98821
 41
0.0349065847694874
 42
3.1414735317230225
  0
ELLIPSE
  5
F0
100
AcDbEntity
  8
0
 62
     7
100
AcDbEllipse
 10
96.823822
 20
86.530914
 30
0.0
 11
0.0
 21
-1.25
 31
0.0
210
0.0
220
0.0
230
1.0
 40
0.98821
 41
3.1417140960693359
 42
6.2833065986633301
  0
ELLIPSE
  5
F1
100
AcDbEntity
  8
0
 62
     7
100
AcDbEllipse
 10
99.88588
 20
86.530914
 30
0.0
 11
0.0
 21
-1.25
 31
0.0
210
0.0
220
0.0
230
1.0
 40
0.98821
 41
3.1417140960693359
 42
6.2833065986633301
  0
ELLIPSE
  5
F2
100
AcDbEntity
  8
0
 62
     7
100
AcDbEllipse
 10
99.88588
 20
86.530914
 30
0.0
 11
0.0
 21
-1.25
 31
0.0
210
0.0
220
0.0
230
1.0
 40
0.98821
 41
0.0001213682990056
 42
0.3490658402442932
  0
ELLIPSE
  5
F3
100
AcDbEntity
  8
0
 62
     7
100
AcDbEllipse
 10
99.88588
 20
86.530914
 30
0.0
 11
0.0
 21
-1.25
 31
0.0
210
0.0
220
0.0
230
1.0
 40
0.98821
 41
0.3490658402442932
 42
3.1417140960693359
  0
ELLIPSE
  5
F4
100
AcDbEntity
  8
0
 62
     7
100
AcDbEllipse
 10
104.918076
 20
71.75428
 30
0.0
 11
0.0
 21
-1.25
 31
0.0
210
0.0
220
0.0
230
1.0
 40
0.98821
 41
3.1415200233459473
 42
6.2831125259399414
  0
ELLIPSE
  5
F5
100
AcDbEntity
  8
0
 62
     7
100
AcDbEllipse
 10
107.980133
 20
71.75428
 30
0.0
 11
0.0
 21
-1.25
 31
0.0
210
0.0
220
0.0
230
1.0
 40
0.98821
 41
3.1415200233459473
 42
6.2831125259399414
  0
ELLIPSE
  5
F6
100
AcDbEntity
  8
0
 62
     7
100
AcDbEllipse
 10
107.980133
 20
71.75428
 30
0.0
 11
0.0
 21
-1.25
 31
0.0
210
0.0
220
0.0
230
1.0
 40
0.98821
 41
6.2831125259399414
 42
6.9464106559753418
  0
ELLIPSE
  5
F7
100
AcDbEntity
  8
0
 62
     7
100
AcDbEllipse
 10
107.980133
 20
71.75428
 30
0.0
 11
0.0
 21
-1.25
 31
0.0
210
0.0
220
0.0
230
1.0
 40
0.98821
 41
0.6632251143455505
 42
3.1415200233459473
  0
ELLIPSE
  5
F8
100
AcDbEntity
  8
0
 62
     7
100
AcDbEllipse
 10
132.26004
 20
53.091869
 30
0.0
 11
0.0
 21
-1.25
 31
0.0
210
0.0
220
0.0
230
1.0
 40
0.98821
 41
3.1416406631469727
 42
6.2832331657409668
  0
ELLIPSE
  5
F9
100
AcDbEntity
  8
0
 62
     7
100
AcDbEllipse
 10
135.322098
 20
53.091869
 30
0.0
 11
0.0
 21
-1.25
 31
0.0
210
0.0
220
0.0
230
1.0
 40
0.98821
 41
3.1416406631469727
 42
6.2832331657409668
  0
ELLIPSE
  5
FA
100
AcDbEntity
  8
0
 62
     7
100
AcDbEllipse
 10
135.322098
 20
53.091869
 30
0.0
 11
0.0
 21
-1.25
 31
0.0
210
0.0
220
0.0
230
1.0
 40
0.98821
 41
0.0000479121445096
 42
1.2915436029434204
  0
ELLIPSE
  5
FB
100
AcDbEntity
  8
0
 62
     7
100
AcDbEllipse
 10
135.322098
 20
53.091869
 30
0.0
 11
0.0
 21
-1.25
 31
0.0
210
0.0
220
0.0
230
1.0
 40
0.98821
 41
1.2915436029434204
 42
3.1416406631469727
  0
ELLIPSE
  5
FC
100
AcDbEntity
  8
0
 62
     7
100
AcDbEllipse
 10
148.831329
 20
51.032894
 30
0.0
 11
0.0
 21
-1.25
 31
0.0
210
0.0
220
0.0
230
1.0
 40
0.98821
 41
3.1414735317230225
 42
6.2830662727355957
  0
ELLIPSE
  5
FD
100
AcDbEntity
  8
0
 62
     7
100
AcDbEllipse
 10
151.893387
 20
51.032894
 30
0.0
 11
0.0
 21
-1.25
 31
0.0
210
0.0
220
0.0
230
1.0
 40
0.98821
 41
3.1414735317230225
 42
6.2830662727355957
  0
ELLIPSE
  5
FE
100
AcDbEntity
  8
0
 62
     7
100
AcDbEllipse
 10
151.893387
 20
51.032894
 30
0.0
 11
0.0
 21
-1.25
 31
0.0
210
0.0
220
0.0
230
1.0
 40
0.98821
 41
6.2830662727355957
 42
7.8888883590698242
  0
ELLIPSE
  5
FF
100
AcDbEntity
  8
0
 62
     7
100
AcDbEllipse
 10
151.893387
 20
51.032894
 30
0.0
 11
0.0
 21
-1.25
 31
0.0
210
0.0
220
0.0
230
1.0
 40
0.98821
 41
1.6057028770446777
 42
3.1414735317230225
  0
ELLIPSE
  5
100
100
AcDbEntity
  8
0
 62
     7
100
AcDbEllipse
 10
165.220306
 20
54.256599
 30
0.0
 11
0.0
 21
-1.25
 31
0.0
210
0.0
220
0.0
230
1.0
 40
0.98821
 41
3.1417140960693359
 42
6.2833065986633301
  0
ELLIPSE
  5
101
100
AcDbEntity
  8
0
 62
     7
100
AcDbEllipse
 10
168.282379
 20
54.256599
 30
0.0
 11
0.0
 21
-1.25
 31
0.0
210
0.0
220
0.0
230
1.0
 40
0.98821
 41
3.1417140960693359
 42
6.2833065986633301
  0
ELLIPSE
  5
102
100
AcDbEntity
  8
0
 62
     7
100
AcDbEllipse
 10
168.282379
 20
54.256599
 30
0.0
 11
0.0
 21
-1.25
 31
0.0
210
0.0
220
0.0
230
1.0
 40
0.98821
 41
0.0001213682990056
 42
1.9198621511459351
  0
ELLIPSE
  5
103
100
AcDbEntity
  8
0
 62
     7
100
AcDbEllipse
 10
168.282379
 20
54.256599
 30
0.0
 11
0.0
 21
-1.25
 31
0.0
210
0.0
220
0.0
230
1.0
 40
0.98821
 41
1.9198621511459351
 42
3.1417140960693359
  0
ELLIPSE
  5
104
100
AcDbEntity
  8
0
 62
     7
100
AcDbEllipse
 10
179.822723
 20
62.447418
 30
0.0
 11
0.0
 21
-1.25
 31
0.0
210
0.0
220
0.0
230
1.0
 40
0.98821
 41
3.1415200233459473
 42
6.2831125259399414
  0
ELLIPSE
  5
105
100
AcDbEntity
  8
0
 62
     7
100
AcDbEllipse
 10
182.884796
 20
62.447418
 30
0.0
 11
0.0
 21
-1.25
 31
0.0
210
0.0
220
0.0
230
1.0
 40
0.98821
 41
3.1415200233459473
 42
6.2831125259399414
  0
ELLIPSE
  5
106
100
AcDbEntity
  8
0
 62
     7
100
AcDbEllipse
 10
182.884796
 20
62.447418
 30
0.0
 11
0.0
 21
-1.25
 31
0.0
210
0.0
220
0.0
230
1.0
 40
0.98821
 41
6.2831125259399414
 42
8.517207145690918
  0
ELLIPSE
  5
107
100
AcDbEntity
  8
0
 62
     7
100
AcDbEllipse
 10
182.884796
 20
62.447418
 30
0.0
 11
0.0
 21
-1.25
 31
0.0
210
0.0
220
0.0
230
1.0
 40
0.98821
 41
2.2340214252471924
 42
3.1415200233459473
  0
ELLIPSE
  5
108
100
AcDbEntity
  8
0
 62
     7
100
AcDbEllipse
 10
191.209198
 20
74.803581
 30
0.0
 11
0.0
 21
-1.25
 31
0.0
210
0.0
220
0.0
230
1.0
 40
0.98821
 41
3.1416189670562744
 42
6.2832117080688477
  0
ELLIPSE
  5
109
100
AcDbEntity
  8
0
 62
     7
100
AcDbEllipse
 10
194.271255
 20
74.803581
 30
0.0
 11
0.0
 21
-1.25
 31
0.0
210
0.0
220
0.0
230
1.0
 40
0.98821
 41
3.1416189670562744
 42
6.2832117080688477
  0
ELLIPSE
  5
10A
100
AcDbEntity
  8
0
 62
     7
100
AcDbEllipse
 10
194.271255
 20
74.803581
 30
0.0
 11
0.0
 21
-1.25
 31
0.0
210
0.0
220
0.0
230
1.0
 40
0.98821
 41
0.0000263046713371
 42
2.5481808185577393
  0
ELLIPSE
  5
10B
100
AcDbEntity
  8
0
 62
     7
100
AcDbEllipse
 10
194.271255
 20
74.803581
 30
0.0
 11
0.0
 21
-1.25
 31
0.0
210
0.0
220
0.0
230
1.0
 40
0.98821
 41
2.5481808185577393
 42
3.1416189670562744
  0
ELLIPSE
  5
10C
100
AcDbEntity
  8
0
 62
     7
100
AcDbEllipse
 10
198.265121
 20
90.115585
 30
0.0
 11
0.0
 21
-1.25
 31
0.0
210
0.0
220
0.0
230
1.0
 40
0.98821
 41
3.1416406631469727
 42
6.2832331657409668
  0
ELLIPSE
  5
10D
100
AcDbEntity
  8
0
 62
     7
100
AcDbEllipse
 10
201.327179
 20
90.115585
 30
0.0
 11
0.0
 21
-1.25
 31
0.0
210
0.0
220
0.0
230
1.0
 40
0.98821
 41
3.1416406631469727
 42
6.2832331657409668
  0
ELLIPSE
  5
10E
100
AcDbEntity
  8
0
 62
     7
100
AcDbEllipse
 10
201.327179
 20
90.115585
 30
0.0
 11
0.0
 21
-1.25
 31
0.0
210
0.0
220
0.0
230
1.0
 40
0.98821
 41
0.0000479121445096
 42
2.862339973449707
  0
ELLIPSE
  5
10F
100
AcDbEntity
  8
0
 62
     7
100
AcDbEllipse
 10
201.327179
 20
90.115585
 30
0.0
 11
0.0
 21
-1.25
 31
0.0
210
0.0
220
0.0
230
1.0
 40
0.98821
 41
2.862339973449707
 42
3.1416406631469727
  0
ELLIPSE
  5
110
100
AcDbEntity
  8
0
 62
     7
100
AcDbEllipse
 10
200.29982
 20
106.884575
 30
0.0
 11
0.0
 21
-1.25
 31
0.0
210
0.0
220
0.0
230
1.0
 40
0.98821
 41
3.1414735317230225
 42
3.1764991283416748
  0
ELLIPSE
  5
111
100
AcDbEntity
  8
0
 62
     7
100
AcDbEllipse
 10
203.361877
 20
106.884575
 30
0.0
 11
0.0
 21
-1.25
 31
0.0
210
0.0
220
0.0
230
1.0
 40
0.98821
 41
6.2830662727355957
 42
9.4246587753295898
  0
ELLIPSE
  5
112
100
AcDbEntity
  8
0
 62
     7
100
AcDbEllipse
 10
203.361877
 20
106.884575
 30
0.0
 11
0.0
 21
-1.25
 31
0.0
210
0.0
220
0.0
230
1.0
 40
0.98821
 41
3.1414735317230225
 42
3.1764991283416748
  0
ELLIPSE
  5
113
100
AcDbEntity
  8
0
 62
     7
100
AcDbEllipse
 10
200.29982
 20
106.884575
 30
0.0
 11
0.0
 21
-1.25
 31
0.0
210
0.0
220
0.0
230
1.0
 40
0.98821
 41
3.1764991283416748
 42
6.2830662727355957
  0
ELLIPSE
  5
114
100
AcDbEntity
  8
0
 62
     7
100
AcDbEllipse
 10
203.361877
 20
106.884575
 30
0.0
 11
0.0
 21
-1.25
 31
0.0
210
0.0
220
0.0
230
1.0
 40
0.98821
 41
3.1764991283416748
 42
6.2830662727355957
  0
ELLIPSE
  5
115
100
AcDbEntity
  8
0
 62
     7
100
AcDbEllipse
 10
197.11412
 20
123.469086
 30
0.0
 11
0.0
 21
-1.25
 31
0.0
210
0.0
220
0.0
230
1.0
 40
0.98821
 41
3.1417140960693359
 42
3.4906585216522217
  0
ELLIPSE
  5
116
100
AcDbEntity
  8
0
 62
     7
100
AcDbEllipse
 10
200.176178
 20
123.469086
 30
0.0
 11
0.0
 21
-1.25
 31
0.0
210
0.0
220
0.0
230
1.0
 40
0.98821
 41
0.0001213682990056
 42
3.1417140960693359
  0
ELLIPSE
  5
117
100
AcDbEntity
  8
0
 62
     7
100
AcDbEllipse
 10
200.176178
 20
123.469086
 30
0.0
 11
0.0
 21
-1.25
 31
0.0
210
0.0
220
0.0
230
1.0
 40
0.98821
 41
3.1417140960693359
 42
3.4906585216522217
  0
ELLIPSE
  5
118
100
AcDbEntity
  8
0
 62
     7
100
AcDbEllipse
 10
197.11412
 20
123.469086
 30
0.0
 11
0.0
 21
-1.25
 31
0.0
210
0.0
220
0.0
230
1.0
 40
0.98821
 41
3.4906585216522217
 42
6.2833065986633301
  0
ELLIPSE
  5
119
100
AcDbEntity
  8
0
 62
     7
100
AcDbEllipse
 10
200.176178
 20
123.469086
 30
0.0
 11
0.0
 21
-1.25
 31
0.0
210
0.0
220
0.0
230
1.0
 40
0.98821
 41
3.4906585216522217
 42
6.2833065986633301
  0
ELLIPSE
  5
11A
100
AcDbEntity
  8
0
 62
     7
100
AcDbEllipse
 10
189.019867
 20
138.245728
 30
0.0
 11
0.0
 21
-1.25
 31
0.0
210
0.0
220
0.0
230
1.0
 40
0.98821
 41
3.1415200233459473
 42
3.8048176765441895
  0
ELLIPSE
  5
11B
100
AcDbEntity
  8
0
 62
     7
100
AcDbEllipse
 10
192.081924
 20
138.245728
 30
0.0
 11
0.0
 21
-1.25
 31
0.0
210
0.0
220
0.0
230
1.0
 40
0.98821
 41
6.2831125259399414
 42
9.4247055053710937
  0
ELLIPSE
  5
11C
100
AcDbEntity
  8
0
 62
     7
100
AcDbEllipse
 10
192.081924
 20
138.245728
 30
0.0
 11
0.0
 21
-1.25
 31
0.0
210
0.0
220
0.0
230
1.0
 40
0.98821
 41
3.1415200233459473
 42
3.8048176765441895
  0
ELLIPSE
  5
11D
100
AcDbEntity
  8
0
 62
     7
100
AcDbEllipse
 10
189.019867
 20
138.245728
 30
0.0
 11
0.0
 21
-1.25
 31
0.0
210
0.0
220
0.0
230
1.0
 40
0.98821
 41
3.8048176765441895
 42
6.2831125259399414
  0
ELLIPSE
  5
11E
100
AcDbEntity
  8
0
 62
     7
100
AcDbEllipse
 10
192.081924
 20
138.245728
 30
0.0
 11
0.0
 21
-1.25
 31
0.0
210
0.0
220
0.0
230
1.0
 40
0.98821
 41
3.8048176765441895
 42
6.2831125259399414
  0
ELLIPSE
  5
11F
100
AcDbEntity
  8
0
 62
     7
100
AcDbEllipse
 10
161.677902
 20
156.908127
 30
0.0
 11
0.0
 21
-1.25
 31
0.0
210
0.0
220
0.0
230
1.0
 40
0.98821
 41
3.1416406631469727
 42
4.4331364631652832
  0
ELLIPSE
  5
120
100
AcDbEntity
  8
0
 62
     7
100
AcDbEllipse
 10
164.73996
 20
156.908127
 30
0.0
 11
0.0
 21
-1.25
 31
0.0
210
0.0
220
0.0
230
1.0
 40
0.98821
 41
0.0000479121445096
 42
3.1416406631469727
  0
ELLIPSE
  5
121
100
AcDbEntity
  8
0
 62
     7
100
AcDbEllipse
 10
164.73996
 20
156.908127
 30
0.0
 11
0.0
 21
-1.25
 31
0.0
210
0.0
220
0.0
230
1.0
 40
0.98821
 41
3.1416406631469727
 42
4.4331364631652832
  0
ELLIPSE
  5
122
100
AcDbEntity
  8
0
 62
     7
100
AcDbEllipse
 10
161.677902
 20
156.908127
 30
0.0
 11
0.0
 21
-1.25
 31
0.0
210
0.0
220
0.0
230
1.0
 40
0.98821
 41
4.4331364631652832
 42
6.2832331657409668
  0
ELLIPSE
  5
123
100
AcDbEntity
  8
0
 62
     7
100
AcDbEllipse
 10
164.73996
 20
156.908127
 30
0.0
 11
0.0
 21
-1.25
 31
0.0
210
0.0
220
0.0
230
1.0
 40
0.98821
 41
4.4331364631652832
 42
6.2832331657409668
  0
ELLIPSE
  5
124
100
AcDbEntity
  8
0
 62
     7
100
AcDbEllipse
 10
145.106613
 20
158.967102
 30
0.0
 11
0.0
 21
-1.25
 31
0.0
210
0.0
220
0.0
230
1.0
 40
0.98821
 41
3.1414735317230225
 42
4.7472953796386719
  0
ELLIPSE
  5
125
100
AcDbEntity
  8
0
 62
     7
100
AcDbEllipse
 10
148.168671
 20
158.967102
 30
0.0
 11
0.0
 21
-1.25
 31
0.0
210
0.0
220
0.0
230
1.0
 40
0.98821
 41
6.2830662727355957
 42
9.4246587753295898
  0
ELLIPSE
  5
126
100
AcDbEntity
  8
0
 62
     7
100
AcDbEllipse
 10
148.168671
 20
158.967102
 30
0.0
 11
0.0
 21
-1.25
 31
0.0
210
0.0
220
0.0
230
1.0
 40
0.98821
 41
3.1414735317230225
 42
4.7472953796386719
  0
ELLIPSE
  5
127
100
AcDbEntity
  8
0
 62
     7
100
AcDbEllipse
 10
145.106613
 20
158.967102
 30
0.0
 11
0.0
 21
-1.25
 31
0.0
210
0.0
220
0.0
230
1.0
 40
0.98821
 41
4.7472953796386719
 42
6.2830662727355957
  0
ELLIPSE
  5
128
100
AcDbEntity
  8
0
 62
     7
100
AcDbEllipse
 10
148.168671
 20
158.967102
 30
0.0
 11
0.0
 21
-1.25
 31
0.0
210
0.0
220
0.0
230
1.0
 40
0.98821
 41
4.7472953796386719
 42
6.2830662727355957
  0
ELLIPSE
  5
129
100
AcDbEntity
  8
0
 62
     7
100
AcDbEllipse
 10
128.717621
 20
155.743408
 30
0.0
 11
0.0
 21
-1.25
 31
0.0
210
0.0
220
0.0
230
1.0
 40
0.98821
 41
3.1417140960693359
 42
5.0614547729492188
  0
ELLIPSE
  5
12A
100
AcDbEntity
  8
0
 62
     7
100
AcDbEllipse
 10
131.779694
 20
155.743408
 30
0.0
 11
0.0
 21
-1.25
 31
0.0
210
0.0
220
0.0
230
1.0
 40
0.98821
 41
0.0001213682990056
 42
3.1417140960693359
  0
ELLIPSE
  5
12B
100
AcDbEntity
  8
0
 62
     7
100
AcDbEllipse
 10
131.779694
 20
155.743408
 30
0.0
 11
0.0
 21
-1.25
 31
0.0
210
0.0
220
0.0
230
1.0
 40
0.98821
 41
3.1417140960693359
 42
5.0614547729492188
  0
ELLIPSE
  5
12C
100
AcDbEntity
  8
0
 62
     7
100
AcDbEllipse
 10
128.717621
 20
155.743408
 30
0.0
 11
0.0
 21
-1.25
 31
0.0
210
0.0
220
0.0
230
1.0
 40
0.98821
 41
5.0614547729492188
 42
6.2833065986633301
  0
ELLIPSE
  5
12D
100
AcDbEntity
  8
0
 62
     7
100
AcDbEllipse
 10
131.779694
 20
155.743408
 30
0.0
 11
0.0
 21
-1.25
 31
0.0
210
0.0
220
0.0
230
1.0
 40
0.98821
 41
5.0614547729492188
 42
6.2833065986633301
  0
ELLIPSE
  5
12E
100
AcDbEntity
  8
0
 62
     7
100
AcDbEllipse
 10
114.115204
 20
147.552582
 30
0.0
 11
0.0
 21
-1.25
 31
0.0
210
0.0
220
0.0
230
1.0
 40
0.98821
 41
3.1415200233459473
 42
5.3756141662597656
  0
ELLIPSE
  5
12F
100
AcDbEntity
  8
0
 62
     7
100
AcDbEllipse
 10
117.177269
 20
147.552582
 30
0.0
 11
0.0
 21
-1.25
 31
0.0
210
0.0
220
0.0
230
1.0
 40
0.98821
 41
6.2831125259399414
 42
9.4247055053710937
  0
ELLIPSE
  5
130
100
AcDbEntity
  8
0
 62
     7
100
AcDbEllipse
 10
117.177269
 20
147.552582
 30
0.0
 11
0.0
 21
-1.25
 31
0.0
210
0.0
220
0.0
230
1.0
 40
0.98821
 41
3.1415200233459473
 42
5.3756141662597656
  0
ELLIPSE
  5
131
100
AcDbEntity
  8
0
 62
     7
100
AcDbEllipse
 10
114.115204
 20
147.552582
 30
0.0
 11
0.0
 21
-1.25
 31
0.0
210
0.0
220
0.0
230
1.0
 40
0.98821
 41
5.3756141662597656
 42
6.2831125259399414
  0
ELLIPSE
  5
132
100
AcDbEntity
  8
0
 62
     7
100
AcDbEllipse
 10
117.177269
 20
147.552582
 30
0.0
 11
0.0
 21
-1.25
 31
0.0
210
0.0
220
0.0
230
1.0
 40
0.98821
 41
5.3756141662597656
 42
6.2831125259399414
  0
LINE
  5
133
100
AcDbEntity
  8
0
 62
     7
 48
0.029306
100
AcDbLine
 10
176.809341
 20
151.018036
 30
0.0
 11
177.981598
 21
151.018036
 31
0.0
210
0.0
220
0.0
230
1.0
  0
LINE
  5
134
100
AcDbEntity
  8
0
 62
     7
 48
0.034445
100
AcDbLine
 10
178.493591
 20
151.018036
 30
0.0
 11
179.871399
 21
151.018036
 31
0.0
210
0.0
220
0.0
230
1.0
  0
LINE
  5
135
100
AcDbEntity
  8
0
 62
     7
 48
0.034451
100
AcDbLine
 10
178.493439
 20
148.518036
 30
0.0
 11
179.871475
 21
148.518036
 31
0.0
210
0.0
220
0.0
230
1.0
  0
LINE
  5
136
100
AcDbEntity
  8
0
 62
     7
 48
0.076551
100
AcDbLine
 10
146.969406
 20
34.0
 30
0.0
 11
150.031464
 21
34.0
 31
0.0
210
0.0
220
0.0
230
1.0
  0
LINE
  5
137
100
AcDbEntity
  8
0
 62
     7
 48
0.076551
100
AcDbLine
 10
146.968536
 20
176.0
 30
0.0
 11
150.030594
 21
176.0
 31
0.0
210
0.0
220
0.0
230
1.0
  0
LINE
  5
138
100
AcDbEntity
  8
0
 62
     7
 48
0.034451
100
AcDbLine
 10
118.812622
 20
58.981972
 30
0.0
 11
120.190659
 21
58.981972
 31
0.0
210
0.0
220
0.0
230
1.0
  0
LINE
  5
139
100
AcDbEntity
  8
0
 62
     7
 48
0.029307
100
AcDbLine
 10
117.128525
 20
61.481972
 30
0.0
 11
118.300789
 21
61.481972
 31
0.0
210
0.0
220
0.0
230
1.0
  0
LINE
  5
13A
100
AcDbEntity
  8
0
 62
     7
 48
0.034445
100
AcDbLine
 10
118.812775
 20
61.481972
 30
0.0
 11
120.19059
 21
61.481972
 31
0.0
210
0.0
220
0.0
230
1.0
  0
LINE
  5
13B
100
AcDbEntity
  8
0
 62
     7
 48
0.038276
100
AcDbLine
 10
147.734711
 20
68.0
 30
0.0
 11
149.265732
 21
68.0
 31
0.0
210
0.0
220
0.0
230
1.0
  0
LINE
  5
13C
100
AcDbEntity
  8
0
 62
     7
 48
0.038276
100
AcDbLine
 10
147.734268
 20
142.0
 30
0.0
 11
149.265289
 21
142.0
 31
0.0
210
0.0
220
0.0
230
1.0
  0
LINE
  5
13D
100
AcDbEntity
  8
0
 62
     7
 48
0.076551
100
AcDbLine
 10
102.728714
 20
136.446411
 30
0.0
 11
105.790771
 21
136.446411
 31
0.0
210
0.0
220
0.0
230
1.0
  0
LINE
  5
13E
100
AcDbEntity
  8
0
 62
     7
 48
0.076551
100
AcDbLine
 10
102.728775
 20
133.946411
 30
0.0
 11
105.790833
 21
133.946411
 31
0.0
210
0.0
220
0.0
230
1.0
  0
LINE
  5
13F
100
AcDbEntity
  8
0
 62
     7
 48
0.076552
100
AcDbLine
 10
95.67276
 20
121.134415
 30
0.0
 11
98.734825
 21
121.134415
 31
0.0
210
0.0
220
0.0
230
1.0
  0
LINE
  5
140
100
AcDbEntity
  8
0
 62
     7
 48
0.076551
100
AcDbLine
 10
95.672882
 20
118.634415
 30
0.0
 11
98.73494
 21
118.634415
 31
0.0
210
0.0
220
0.0
230
1.0
  0
LINE
  5
141
100
AcDbEntity
  8
0
 62
     7
 48
0.076552
100
AcDbLine
 10
93.637978
 20
101.865425
 30
0.0
 11
96.700043
 21
101.865425
 31
0.0
210
0.0
220
0.0
230
1.0
  0
LINE
  5
142
100
AcDbEntity
  8
0
 62
     7
 48
0.076551
100
AcDbLine
 10
93.638275
 20
104.365425
 30
0.0
 11
96.700333
 21
104.365425
 31
0.0
210
0.0
220
0.0
230
1.0
  0
LINE
  5
143
100
AcDbEntity
  8
0
 62
     7
 48
0.076551
100
AcDbLine
 10
96.823975
 20
85.280914
 30
0.0
 11
99.886032
 21
85.280914
 31
0.0
210
0.0
220
0.0
230
1.0
  0
LINE
  5
144
100
AcDbEntity
  8
0
 62
     7
 48
0.076551
100
AcDbLine
 10
96.823669
 20
87.780914
 30
0.0
 11
99.885727
 21
87.780914
 31
0.0
210
0.0
220
0.0
230
1.0
  0
LINE
  5
145
100
AcDbEntity
  8
0
 62
     7
 48
0.076551
100
AcDbLine
 10
104.917984
 20
70.50428
 30
0.0
 11
107.980042
 21
70.50428
 31
0.0
210
0.0
220
0.0
230
1.0
  0
LINE
  5
146
100
AcDbEntity
  8
0
 62
     7
 48
0.076551
100
AcDbLine
 10
104.918167
 20
73.00428
 30
0.0
 11
107.980225
 21
73.00428
 31
0.0
210
0.0
220
0.0
230
1.0
  0
LINE
  5
147
100
AcDbEntity
  8
0
 62
     7
 48
0.076551
100
AcDbLine
 10
132.260101
 20
51.841869
 30
0.0
 11
135.322159
 21
51.841869
 31
0.0
210
0.0
220
0.0
230
1.0
  0
LINE
  5
148
100
AcDbEntity
  8
0
 62
     7
 48
0.076551
100
AcDbLine
 10
132.259979
 20
54.341869
 30
0.0
 11
135.322037
 21
54.341869
 31
0.0
210
0.0
220
0.0
230
1.0
  0
LINE
  5
149
100
AcDbEntity
  8
0
 62
     7
 48
0.076551
100
AcDbLine
 10
148.831177
 20
49.782894
 30
0.0
 11
151.893234
 21
49.782894
 31
0.0
210
0.0
220
0.0
230
1.0
  0
LINE
  5
14A
100
AcDbEntity
  8
0
 62
     7
 48
0.076551
100
AcDbLine
 10
148.831467
 20
52.282894
 30
0.0
 11
151.893524
 21
52.282894
 31
0.0
210
0.0
220
0.0
230
1.0
  0
LINE
  5
14B
100
AcDbEntity
  8
0
 62
     7
 48
0.076551
100
AcDbLine
 10
165.220459
 20
53.006599
 30
0.0
 11
168.282516
 21
53.006599
 31
0.0
210
0.0
220
0.0
230
1.0
  0
LINE
  5
14C
100
AcDbEntity
  8
0
 62
     7
 48
0.076552
100
AcDbLine
 10
165.220154
 20
55.506599
 30
0.0
 11
168.282227
 21
55.506599
 31
0.0
210
0.0
220
0.0
230
1.0
  0
LINE
  5
14D
100
AcDbEntity
  8
0
 62
     7
 48
0.076551
100
AcDbLine
 10
179.822647
 20
61.197418
 30
0.0
 11
182.884705
 21
61.197418
 31
0.0
210
0.0
220
0.0
230
1.0
  0
LINE
  5
14E
100
AcDbEntity
  8
0
 62
     7
 48
0.076552
100
AcDbLine
 10
179.822815
 20
63.697418
 30
0.0
 11
182.884888
 21
63.697418
 31
0.0
210
0.0
220
0.0
230
1.0
  0
LINE
  5
14F
100
AcDbEntity
  8
0
 62
     7
 48
0.076551
100
AcDbLine
 10
191.209229
 20
73.553581
 30
0.0
 11
194.271286
 21
73.553581
 31
0.0
210
0.0
220
0.0
230
1.0
  0
LINE
  5
150
100
AcDbEntity
  8
0
 62
     7
 48
0.076551
100
AcDbLine
 10
191.209167
 20
76.053581
 30
0.0
 11
194.271225
 21
76.053581
 31
0.0
210
0.0
220
0.0
230
1.0
  0
LINE
  5
151
100
AcDbEntity
  8
0
 62
     7
 48
0.076552
100
AcDbLine
 10
198.265167
 20
88.865585
 30
0.0
 11
201.32724
 21
88.865585
 31
0.0
210
0.0
220
0.0
230
1.0
  0
LINE
  5
152
100
AcDbEntity
  8
0
 62
     7
 48
0.076551
100
AcDbLine
 10
198.26506
 20
91.365585
 30
0.0
 11
201.327118
 21
91.365585
 31
0.0
210
0.0
220
0.0
230
1.0
  0
LINE
  5
153
100
AcDbEntity
  8
0
 62
     7
 48
0.076552
100
AcDbLine
 10
200.299957
 20
108.134575
 30
0.0
 11
203.36203
 21
108.134575
 31
0.0
210
0.0
220
0.0
230
1.0
  0
LINE
  5
154
100
AcDbEntity
  8
0
 62
     7
 48
0.076551
100
AcDbLine
 10
200.299667
 20
105.634575
 30
0.0
 11
203.361725
 21
105.634575
 31
0.0
210
0.0
220
0.0
230
1.0
  0
LINE
  5
155
100
AcDbEntity
  8
0
 62
     7
 48
0.076551
100
AcDbLine
 10
197.113968
 20
124.719086
 30
0.0
 11
200.176025
 21
124.719086
 31
0.0
210
0.0
220
0.0
230
1.0
  0
LINE
  5
156
100
AcDbEntity
  8
0
 62
     7
 48
0.076551
100
AcDbLine
 10
197.114273
 20
122.219086
 30
0.0
 11
200.176331
 21
122.219086
 31
0.0
210
0.0
220
0.0
230
1.0
  0
LINE
  5
157
100
AcDbEntity
  8
0
 62
     7
 48
0.076551
100
AcDbLine
 10
189.019958
 20
139.495728
 30
0.0
 11
192.082016
 21
139.495728
 31
0.0
210
0.0
220
0.0
230
1.0
  0
LINE
  5
158
100
AcDbEntity
  8
0
 62
     7
 48
0.076551
100
AcDbLine
 10
189.019775
 20
136.995728
 30
0.0
 11
192.081833
 21
136.995728
 31
0.0
210
0.0
220
0.0
230
1.0
  0
LINE
  5
159
100
AcDbEntity
  8
0
 62
     7
 48
0.076551
100
AcDbLine
 10
161.677841
 20
158.158127
 30
0.0
 11
164.739899
 21
158.158127
 31
0.0
210
0.0
220
0.0
230
1.0
  0
LINE
  5
15A
100
AcDbEntity
  8
0
 62
     7
 48
0.076551
100
AcDbLine
 10
161.677963
 20
155.658127
 30
0.0
 11
164.740021
 21
155.658127
 31
0.0
210
0.0
220
0.0
230
1.0
  0
LINE
  5
15B
100
AcDbEntity
  8
0
 62
     7
 48
0.076551
100
AcDbLine
 10
145.106766
 20
160.217102
 30
0.0
 11
148.168823
 21
160.217102
 31
0.0
210
0.0
220
0.0
230
1.0
  0
LINE
  5
15C
100
AcDbEntity
  8
0
 62
     7
 48
0.076551
100
AcDbLine
 10
145.106476
 20
157.717102
 30
0.0
 11
148.168533
 21
157.717102
 31
0.0
210
0.0
220
0.0
230
1.0
  0
LINE
  5
15D
100
AcDbEntity
  8
0
 62
     7
 48
0.076551
100
AcDbLine
 10
128.717484
 20
156.993408
 30
0.0
 11
131.779541
 21
156.993408
 31
0.0
210
0.0
220
0.0
230
1.0
  0
LINE
  5
15E
100
AcDbEntity
  8
0
 62
     7
 48
0.076552
100
AcDbLine
 10
128.717773
 20
154.493408
 30
0.0
 11
131.779846
 21
154.493408
 31
0.0
210
0.0
220
0.0
230
1.0
  0
LINE
  5
15F
100
AcDbEntity
  8
0
 62
     7
 48
0.076552
100
AcDbLine
 10
114.115295
 20
148.802582
 30
0.0
 11
117.177361
 21
148.802582
 31
0.0
210
0.0
220
0.0
230
1.0
  0
LINE
  5
160
100
AcDbEntity
  8
0
 62
     7
 48
0.076551
100
AcDbLine
 10
114.11512
 20
146.302582
 30
0.0
 11
117.177177
 21
146.302582
 31
0.0
210
0.0
220
0.0
230
1.0
  0
ENDSEC
  0
SECTION
  2
OBJECTS
  0
DICTIONARY
  5
19
100
AcDbDictionary
  3
ACAD_GROUP
350
1A
  3
ACAD_MLINESTYLE
350
1B
  0
DICTIONARY
  5
1A
102
{ACAD_REACTORS
330
19
102
}
100
AcDbDictionary
  0
DICTIONARY
  5
1B
102
{ACAD_REACTORS
330
19
102
}
100
AcDbDictionary
  3
STANDARD
350
1C
  0
MLINESTYLE
  5
1C
102
{ACAD_REACTORS
330
1B
102
}
100
AcDbMlineStyle
  2
STANDARD
 70
     0
  3

 62
     0
 51
90.0
 52
90.0
 71
     2
 49
0.5
 62
   256
  6
BYLAYER
 49
-0.5
 62
   256
  6
BYLAYER
  0
ENDSEC
  0
EOF
